999
dxflib 2.2.0.0
  0
SECTION
  2
HEADER
  9
$ACADVER
  1
AC1015
  9
$HANDSEED
  5
FFFF
  9
$DIMASZ
 40
2.5
  9
$PLIMMIN
 10
0.0
 20
0.0
  9
$DIMEXE
 40
1.25
  9
$DIMGAP
 40
0.625
  9
$PLIMMAX
 10
210.0
 20
297.0
  9
$INSUNITS
 70
4
  9
$DIMEXO
 40
0.625
  9
$DIMTXT
 40
2.5
  0
ENDSEC
  0
SECTION
  2
TABLES
  0
TABLE
  2
VPORT
  5
8
100
AcDbSymbolTable
 70
1
  0
VPORT
  5
30
100
AcDbSymbolTableRecord
100
AcDbViewportTableRecord
  2
*Active
 70
0
 10
0.0
 20
0.0
 11
1.0
 21
1.0
 12
286.3055555555554861
 22
148.5
 13
0.0
 23
0.0
 14
10.0
 24
10.0
 15
10.0
 25
10.0
 16
0.0
 26
0.0
 36
1.0
 17
0.0
 27
0.0
 37
0.0
 40
297.0
 41
1.92798353909465
 42
50.0
 43
0.0
 44
0.0
 50
0.0
 51
0.0
 71
0
 72
100
 73
1
 74
3
 75
1
 76
1
 77
0
 78
0
281
0
 65
1
110
0.0
120
0.0
130
0.0
111
1.0
121
0.0
131
0.0
112
0.0
122
1.0
132
0.0
 79
0
146
0.0
  0
ENDTAB
  0
TABLE
  2
LTYPE
  5
5
100
AcDbSymbolTable
 70
21
  0
LTYPE
  5
14
100
AcDbSymbolTableRecord
100
AcDbLinetypeTableRecord
  2
ByBlock
 70
0
  3

 72
65
 73
0
 40
0.0
  0
LTYPE
  5
15
100
AcDbSymbolTableRecord
100
AcDbLinetypeTableRecord
  2
ByLayer
 70
0
  3

 72
65
 73
0
 40
0.0
  0
LTYPE
  5
16
100
AcDbSymbolTableRecord
100
AcDbLinetypeTableRecord
  2
CONTINUOUS
 70
0
  3
Solid line
 72
65
 73
0
 40
0.0
  0
LTYPE
  5
31
100
AcDbSymbolTableRecord
100
AcDbLinetypeTableRecord
  2
DOT
 70
0
  3
Dot . . . . . . . . . . . . . . . . . . . . . .
 72
65
 73
2
 40
6.3499999999999996
 49
0.0
 74
0
 49
-6.3499999999999996
 74
0
  0
LTYPE
  5
32
100
AcDbSymbolTableRecord
100
AcDbLinetypeTableRecord
  2
DOT2
 70
0
  3
Dot (.5x) .....................................
 72
65
 73
2
 40
3.1749999999999998
 49
0.0
 74
0
 49
-3.1749999999999998
 74
0
  0
LTYPE
  5
33
100
AcDbSymbolTableRecord
100
AcDbLinetypeTableRecord
  2
DOTX2
 70
0
  3
Dot (2x) .  .  .  .  .  .  .  .  .  .  .  .  .
 72
65
 73
2
 40
12.6999999999999993
 49
0.0
 74
0
 49
-12.6999999999999993
 74
0
  0
LTYPE
  5
34
100
AcDbSymbolTableRecord
100
AcDbLinetypeTableRecord
  2
DASHED
 70
0
  3
Dashed __ __ __ __ __ __ __ __ __ __ __ __ __ _
 72
65
 73
2
 40
19.0500000000000007
 49
12.6999999999999993
 74
0
 49
-6.3499999999999996
 74
0
  0
LTYPE
  5
35
100
AcDbSymbolTableRecord
100
AcDbLinetypeTableRecord
  2
DASHED2
 70
0
  3
Dashed (.5x) _ _ _ _ _ _ _ _ _ _ _ _ _ _ _ _ _
 72
65
 73
2
 40
9.5250000000000004
 49
6.3499999999999996
 74
0
 49
-3.1749999999999998
 74
0
  0
LTYPE
  5
36
100
AcDbSymbolTableRecord
100
AcDbLinetypeTableRecord
  2
DASHEDX2
 70
0
  3
Dashed (2x) ____  ____  ____  ____  ____  ___
 72
65
 73
2
 40
38.1000000000000014
 49
25.3999999999999986
 74
0
 49
-12.6999999999999993
 74
0
  0
LTYPE
  5
37
100
AcDbSymbolTableRecord
100
AcDbLinetypeTableRecord
  2
DASHDOT
 70
0
  3
Dash dot __ . __ . __ . __ . __ . __ . __ . __
 72
65
 73
4
 40
25.3999999999999986
 49
12.6999999999999993
 74
0
 49
-6.3499999999999996
 74
0
 49
0.0
 74
0
 49
-6.3499999999999996
 74
0
  0
LTYPE
  5
38
100
AcDbSymbolTableRecord
100
AcDbLinetypeTableRecord
  2
DASHDOT2
 70
0
  3
Dash dot (.5x) _._._._._._._._._._._._._._._.
 72
65
 73
4
 40
12.6999999999999993
 49
6.3499999999999996
 74
0
 49
-3.1749999999999998
 74
0
 49
0.0
 74
0
 49
-3.1749999999999998
 74
0
  0
LTYPE
  5
39
100
AcDbSymbolTableRecord
100
AcDbLinetypeTableRecord
  2
DASHDOTX2
 70
0
  3
Dash dot (2x) ____  .  ____  .  ____  .  ___
 72
65
 73
4
 40
50.7999999999999972
 49
25.3999999999999986
 74
0
 49
-12.6999999999999993
 74
0
 49
0.0
 74
0
 49
-12.6999999999999993
 74
0
  0
LTYPE
  5
3A
100
AcDbSymbolTableRecord
100
AcDbLinetypeTableRecord
  2
DIVIDE
 70
0
  3
Divide ____ . . ____ . . ____ . . ____ . . ____
 72
65
 73
6
 40
31.75
 49
12.6999999999999993
 74
0
 49
-6.3499999999999996
 74
0
 49
0.0
 74
0
 49
-6.3499999999999996
 74
0
 49
0.0
 74
0
 49
-6.3499999999999996
 74
0
  0
LTYPE
  5
3B
100
AcDbSymbolTableRecord
100
AcDbLinetypeTableRecord
  2
DIVIDE2
 70
0
  3
Divide (.5x) __..__..__..__..__..__..__..__.._
 72
65
 73
6
 40
15.875
 49
6.3499999999999996
 74
0
 49
-3.1749999999999998
 74
0
 49
0.0
 74
0
 49
-3.1749999999999998
 74
0
 49
0.0
 74
0
 49
-3.1749999999999998
 74
0
  0
LTYPE
  5
3C
100
AcDbSymbolTableRecord
100
AcDbLinetypeTableRecord
  2
DIVIDEX2
 70
0
  3
Divide (2x) ________  .  .  ________  .  .  _
 72
65
 73
6
 40
63.5
 49
25.3999999999999986
 74
0
 49
-12.6999999999999993
 74
0
 49
0.0
 74
0
 49
-12.6999999999999993
 74
0
 49
0.0
 74
0
 49
-12.6999999999999993
 74
0
  0
LTYPE
  5
3D
100
AcDbSymbolTableRecord
100
AcDbLinetypeTableRecord
  2
CENTER
 70
0
  3
Center ____ _ ____ _ ____ _ ____ _ ____ _ ____
 72
65
 73
4
 40
50.7999999999999972
 49
31.75
 74
0
 49
-6.3499999999999996
 74
0
 49
6.3499999999999996
 74
0
 49
-6.3499999999999996
 74
0
  0
LTYPE
  5
3E
100
AcDbSymbolTableRecord
100
AcDbLinetypeTableRecord
  2
CENTER2
 70
0
  3
Center (.5x) ___ _ ___ _ ___ _ ___ _ ___ _ ___
 72
65
 73
4
 40
28.5749999999999993
 49
19.0500000000000007
 74
0
 49
-3.1749999999999998
 74
0
 49
3.1749999999999998
 74
0
 49
-3.1749999999999998
 74
0
  0
LTYPE
  5
3F
100
AcDbSymbolTableRecord
100
AcDbLinetypeTableRecord
  2
CENTERX2
 70
0
  3
Center (2x) ________  __  ________  __  _____
 72
65
 73
4
 40
101.5999999999999943
 49
63.5
 74
0
 49
-12.6999999999999993
 74
0
 49
12.6999999999999993
 74
0
 49
-12.6999999999999993
 74
0
  0
LTYPE
  5
40
100
AcDbSymbolTableRecord
100
AcDbLinetypeTableRecord
  2
BORDER
 70
0
  3
Border __ __ . __ __ . __ __ . __ __ . __ __ .
 72
65
 73
6
 40
44.4500000000000028
 49
12.6999999999999993
 74
0
 49
-6.3499999999999996
 74
0
 49
12.6999999999999993
 74
0
 49
-6.3499999999999996
 74
0
 49
0.0
 74
0
 49
-6.3499999999999996
 74
0
  0
LTYPE
  5
41
100
AcDbSymbolTableRecord
100
AcDbLinetypeTableRecord
  2
BORDER2
 70
0
  3
Border (.5x) __.__.__.__.__.__.__.__.__.__.__.
 72
65
 73
6
 40
22.2250000000000014
 49
6.3499999999999996
 74
0
 49
-3.1749999999999998
 74
0
 49
6.3499999999999996
 74
0
 49
-3.1749999999999998
 74
0
 49
0.0
 74
0
 49
-3.1749999999999998
 74
0
  0
LTYPE
  5
42
100
AcDbSymbolTableRecord
100
AcDbLinetypeTableRecord
  2
BORDERX2
 70
0
  3
Border (2x) ____  ____  .  ____  ____  .  ___
 72
65
 73
6
 40
88.9000000000000057
 49
25.3999999999999986
 74
0
 49
-12.6999999999999993
 74
0
 49
25.3999999999999986
 74
0
 49
-12.6999999999999993
 74
0
 49
0.0
 74
0
 49
-12.6999999999999993
 74
0
  0
ENDTAB
  0
TABLE
  2
LAYER
  5
2
100
AcDbSymbolTable
 70
6
  0
LAYER
  5
10
100
AcDbSymbolTableRecord
100
AcDbLayerTableRecord
  2
0
 70
0
 62
7
  6
CONTINUOUS
290
1
370
0
390
F
  0
LAYER
  5
43
100
AcDbSymbolTableRecord
100
AcDbLayerTableRecord
  2
frame
 70
0
 62
161
  6
CONTINUOUS
290
1
370
0
390
F
  0
LAYER
  5
44
100
AcDbSymbolTableRecord
100
AcDbLayerTableRecord
  2
cut01
 70
1
 62
5
  6
CONTINUOUS
290
1
370
9
390
F
  0
LAYER
  5
45
100
AcDbSymbolTableRecord
100
AcDbLayerTableRecord
  2
engrave01
 70
0
 62
1
  6
CONTINUOUS
290
1
370
9
390
F
  0
LAYER
  5
46
100
AcDbSymbolTableRecord
100
AcDbLayerTableRecord
  2
cut
 70
0
 62
5
  6
CONTINUOUS
290
1
370
0
390
F
  0
LAYER
  5
47
100
AcDbSymbolTableRecord
100
AcDbLayerTableRecord
  2
engrave
 70
0
 62
1
  6
CONTINUOUS
290
1
370
9
390
F
  0
ENDTAB
  0
TABLE
  2
STYLE
  5
3
100
AcDbSymbolTable
 70
1
  0
STYLE
  5
11
100
AcDbSymbolTableRecord
100
AcDbTextStyleTableRecord
  2
Standard
 70
0
 40
0.0
 41
0.75
 50
0.0
 71
0
 42
2.5
  3
txt
  4

  0
ENDTAB
  0
TABLE
  2
VIEW
  5
6
100
AcDbSymbolTable
 70
0
  0
ENDTAB
  0
TABLE
  2
UCS
  5
7
100
AcDbSymbolTable
 70
0
  0
ENDTAB
  0
TABLE
  2
APPID
  5
9
100
AcDbSymbolTable
 70
1
  0
APPID
  5
12
100
AcDbSymbolTableRecord
100
AcDbRegAppTableRecord
  2
ACAD
 70
0
  0
ENDTAB
  0
TABLE
  2
DIMSTYLE
  5
A
100
AcDbSymbolTable
 70
1
100
AcDbDimStyleTable
 71
0
  0
DIMSTYLE
105
27
100
AcDbSymbolTableRecord
100
AcDbDimStyleTableRecord
  2
Standard
 41
2.5
 42
0.625
 43
3.75
 44
1.25
 70
0
 73
0
 74
0
 77
1
 78
8
140
2.5
141
2.5
143
0.03937007874016
147
0.625
171
3
172
1
271
2
272
2
274
3
278
44
283
0
284
8
340
11
  0
ENDTAB
  0
TABLE
  2
BLOCK_RECORD
  5
1
100
AcDbSymbolTable
 70
1
  0
BLOCK_RECORD
  5
1F
100
AcDbSymbolTableRecord
100
AcDbBlockTableRecord
  2
*Model_Space
340
22
  0
BLOCK_RECORD
  5
1B
100
AcDbSymbolTableRecord
100
AcDbBlockTableRecord
  2
*Paper_Space
340
1E
  0
BLOCK_RECORD
  5
23
100
AcDbSymbolTableRecord
100
AcDbBlockTableRecord
  2
*Paper_Space0
340
26
  0
ENDTAB
  0
ENDSEC
  0
SECTION
  2
BLOCKS
  0
BLOCK
  5
20
100
AcDbEntity
  8
0
100
AcDbBlockBegin
  2
*Model_Space
 70
0
 10
0.0
 20
0.0
 30
0.0
  3
*Model_Space
  1

  0
ENDBLK
  5
21
100
AcDbEntity
  8
0
100
AcDbBlockEnd
  0
BLOCK
  5
1C
100
AcDbEntity
 67
1
  8
0
100
AcDbBlockBegin
  2
*Paper_Space
 70
0
 10
0.0
 20
0.0
 30
0.0
  3
*Paper_Space
  1

  0
ENDBLK
  5
1D
100
AcDbEntity
 67
1
  8
0
100
AcDbBlockEnd
  0
BLOCK
  5
24
100
AcDbEntity
  8
0
100
AcDbBlockBegin
  2
*Paper_Space0
 70
0
 10
0.0
 20
0.0
 30
0.0
  3
*Paper_Space0
  1

  0
ENDBLK
  5
25
100
AcDbEntity
  8
0
100
AcDbBlockEnd
  0
ENDSEC
  0
SECTION
  2
ENTITIES
  0
CIRCLE
  5
48
100
AcDbEntity
100
AcDbCircle
  8
cut01
 62
256
370
-1
  6
ByLayer
 10
-0.3423717186453121
 20
-6.5560583853087167
 30
0.0
 40
2.5
  0
CIRCLE
  5
49
100
AcDbEntity
100
AcDbCircle
  8
cut01
 62
256
370
-1
  6
ByLayer
 10
11.6609243922313386
 20
-6.1354688051443986
 30
0.0
 40
2.5
  0
CIRCLE
  5
4A
100
AcDbEntity
100
AcDbCircle
  8
cut01
 62
256
370
-1
  6
ByLayer
 10
23.6494553441333437
 20
-5.7390360650813079
 30
0.0
 40
2.5
  0
CIRCLE
  5
4B
100
AcDbEntity
100
AcDbCircle
  8
cut01
 62
256
370
-1
  6
ByLayer
 10
35.6604601032974458
 20
-5.2812659289241992
 30
0.0
 40
2.5
  0
CIRCLE
  5
4C
100
AcDbEntity
100
AcDbCircle
  8
cut01
 62
256
370
-1
  6
ByLayer
 10
0.9767961461262225
 20
-44.5486404225974013
 30
0.0
 40
2.5
  0
CIRCLE
  5
4D
100
AcDbEntity
100
AcDbCircle
  8
cut01
 62
256
370
-1
  6
ByLayer
 10
12.9650285668930607
 20
-44.1009348599406792
 30
0.0
 40
2.5
  0
CIRCLE
  5
4E
100
AcDbEntity
100
AcDbCircle
  8
cut01
 62
256
370
-1
  6
ByLayer
 10
24.9715044646113284
 20
-43.7022574955585412
 30
0.0
 40
2.5
  0
CIRCLE
  5
4F
100
AcDbEntity
100
AcDbCircle
  8
cut01
 62
256
370
-1
  6
ByLayer
 10
36.9940686769070126
 20
-43.2812705947320921
 30
0.0
 40
2.5
  0
CIRCLE
  5
50
100
AcDbEntity
100
AcDbCircle
  8
cut01
 62
256
370
-1
  6
ByLayer
 10
28.3026455123034317
 20
-24.4313144630460499
 30
0.0
 40
3.0
  0
CIRCLE
  5
51
100
AcDbEntity
100
AcDbCircle
  8
cut01
 62
256
370
-1
  6
ByLayer
 10
-4.839657328153951
 20
-24.8233016941260587
 30
0.0
 40
11.0
  0
CIRCLE
  5
52
100
AcDbEntity
100
AcDbCircle
  8
cut01
 62
256
370
-1
  6
ByLayer
 10
5.5366333898419384
 20
-15.4236958015563062
 30
0.0
 40
1.6000000000000001
  0
CIRCLE
  5
53
100
AcDbEntity
100
AcDbCircle
  8
cut01
 62
256
370
-1
  6
ByLayer
 10
-15.2159480461498831
 20
-34.2229075866957544
 30
0.0
 40
1.6000000000000001
  0
SPLINE
  5
54
  8
cut01
 62
256
370
-1
  6
ByLayer
100
AcDbEntity
100
AcDbSpline
 70
8
 71
3
 72
8
 73
4
 74
0
 40
0.0
 40
0.0
 40
0.0
 40
0.0
 40
1.0
 40
1.0
 40
1.0
 40
1.0
 10
70.7535868441798925
 20
-27.8146827610788989
 30
0.0
 10
71.2270148441797346
 20
-27.8831217610790247
 30
0.0
 10
71.7050288441799353
 20
-27.9173417610789159
 30
0.0
 10
72.1833958441797705
 20
-27.9173417610789159
 30
0.0
  0
SPLINE
  5
55
  8
cut01
 62
256
370
-1
  6
ByLayer
100
AcDbEntity
100
AcDbSpline
 70
8
 71
3
 72
8
 73
4
 74
0
 40
0.0
 40
0.0
 40
0.0
 40
0.0
 40
1.0
 40
1.0
 40
1.0
 40
1.0
 10
72.1833958441797705
 20
-27.9173417610789159
 30
0.0
 10
77.7061318441798221
 20
-27.9173417610789727
 30
0.0
 10
82.1832348441798217
 20
-23.4398857610790117
 30
0.0
 10
82.1832348441800065
 20
-17.9171497610789459
 30
0.0
  0
SPLINE
  5
56
  8
cut01
 62
256
370
-1
  6
ByLayer
100
AcDbEntity
100
AcDbSpline
 70
8
 71
3
 72
8
 73
4
 74
0
 40
0.0
 40
0.0
 40
0.0
 40
0.0
 40
1.0
 40
1.0
 40
1.0
 40
1.0
 10
82.1832348441800065
 20
-17.9171497610789459
 30
0.0
 10
82.1832348441798786
 20
-12.3944137610790506
 30
0.0
 10
77.7061318441800069
 20
-7.9173107610789373
 30
0.0
 10
72.18339584417987
 20
-7.9173107610789941
 30
0.0
  0
SPLINE
  5
57
  8
cut01
 62
256
370
-1
  6
ByLayer
100
AcDbEntity
100
AcDbSpline
 70
8
 71
3
 72
8
 73
4
 74
0
 40
0.0
 40
0.0
 40
0.0
 40
0.0
 40
1.0
 40
1.0
 40
1.0
 40
1.0
 10
72.18339584417987
 20
-7.9173107610789941
 30
0.0
 10
70.3852868441798876
 20
-7.9173107610789941
 30
0.0
 10
68.6203398441799379
 20
-8.4020277610789833
 30
0.0
 10
67.0748208441800955
 20
-9.3206607610789263
 30
0.0
  0
SPLINE
  5
58
  8
cut01
 62
256
370
-1
  6
ByLayer
100
AcDbEntity
100
AcDbSpline
 70
8
 71
3
 72
8
 73
4
 74
0
 40
0.0
 40
0.0
 40
0.0
 40
0.0
 40
1.0
 40
1.0
 40
1.0
 40
1.0
 10
-40.2250101558199589
 20
-30.4157137610790471
 30
0.0
 10
-38.6791381558201195
 20
-31.3343467610790469
 30
0.0
 10
-36.9145431558199562
 20
-31.8190637610790361
 30
0.0
 10
-35.1164351558201346
 20
-31.8190637610789793
 30
0.0
  0
SPLINE
  5
59
  8
cut01
 62
256
370
-1
  6
ByLayer
100
AcDbEntity
100
AcDbSpline
 70
8
 71
3
 72
8
 73
4
 74
0
 40
0.0
 40
0.0
 40
0.0
 40
0.0
 40
1.0
 40
1.0
 40
1.0
 40
1.0
 10
-35.1164351558201346
 20
-31.8190637610789793
 30
0.0
 10
-29.5936991558201115
 20
-31.819063761079093
 30
0.0
 10
-25.1165961558200834
 20
-27.3419607610789228
 30
0.0
 10
-25.1165961558199555
 20
-21.8192247610790275
 30
0.0
  0
SPLINE
  5
5A
  8
cut01
 62
256
370
-1
  6
ByLayer
100
AcDbEntity
100
AcDbSpline
 70
8
 71
3
 72
8
 73
4
 74
0
 40
0.0
 40
0.0
 40
0.0
 40
0.0
 40
1.0
 40
1.0
 40
1.0
 40
1.0
 10
-25.1165961558199555
 20
-21.8192247610790275
 30
0.0
 10
-25.1165961558200053
 20
-16.2961357610790571
 30
0.0
 10
-29.593699155820012
 20
-11.8190327610790575
 30
0.0
 10
-35.1164351558200494
 20
-11.8190327610790575
 30
0.0
  0
SPLINE
  5
5B
  8
cut01
 62
256
370
-1
  6
ByLayer
100
AcDbEntity
100
AcDbSpline
 70
8
 71
3
 72
8
 73
4
 74
0
 40
0.0
 40
0.0
 40
0.0
 40
0.0
 40
1.0
 40
1.0
 40
1.0
 40
1.0
 10
-35.1164351558200494
 20
-11.8190327610790575
 30
0.0
 10
-35.5948021558201049
 20
-11.8190327610790007
 30
0.0
 10
-36.0728151558200665
 20
-11.8536057610790238
 30
0.0
 10
-36.5462431558200578
 20
-11.9216917610790176
 30
0.0
  0
SPLINE
  5
5C
  8
cut01
 62
256
370
-1
  6
ByLayer
100
AcDbEntity
100
AcDbSpline
 70
8
 71
3
 72
8
 73
4
 74
0
 40
0.0
 40
0.0
 40
0.0
 40
0.0
 40
1.0
 40
1.0
 40
1.0
 40
1.0
 10
-42.1652881558201358
 20
-5.997846761079046
 30
0.0
 10
-42.2291401558202537
 20
-6.3188747610789449
 30
0.0
 10
-42.2612431558200186
 20
-6.6458997610791641
 30
0.0
 10
-42.2612431558202317
 20
-6.9732777610790606
 30
0.0
  0
SPLINE
  5
5D
  8
cut01
 62
256
370
-1
  6
ByLayer
100
AcDbEntity
100
AcDbSpline
 70
8
 71
3
 72
8
 73
4
 74
0
 40
0.0
 40
0.0
 40
0.0
 40
0.0
 40
1.0
 40
1.0
 40
1.0
 40
1.0
 10
-42.2612431558202317
 20
-6.9732777610790606
 30
0.0
 10
-42.2612431558199688
 20
-9.7344687610789435
 30
0.0
 10
-40.0228681558200989
 20
-11.9731967610789809
 30
0.0
 10
-37.2613241558199277
 20
-11.9731967610790946
 30
0.0
  0
SPLINE
  5
5E
  8
cut01
 62
256
370
-1
  6
ByLayer
100
AcDbEntity
100
AcDbSpline
 70
8
 71
3
 72
8
 73
4
 74
0
 40
0.0
 40
0.0
 40
0.0
 40
0.0
 40
1.0
 40
1.0
 40
1.0
 40
1.0
 10
-37.2613241558199277
 20
-11.9731967610790946
 30
0.0
 10
-37.0221401558201677
 20
-11.9731967610788672
 30
0.0
 10
-36.7833101558202529
 20
-11.9559107610789681
 30
0.0
 10
-36.546596155820211
 20
-11.9220437610789816
 30
0.0
  0
SPLINE
  5
5F
  8
cut01
 62
256
370
-1
  6
ByLayer
100
AcDbEntity
100
AcDbSpline
 70
8
 71
3
 72
8
 73
4
 74
0
 40
0.0
 40
0.0
 40
0.0
 40
0.0
 40
1.0
 40
1.0
 40
1.0
 40
1.0
 10
-40.2250101558199589
 20
-30.4157137610790471
 30
0.0
 10
-40.9979461558199745
 20
-29.9563967610789916
 30
0.0
 10
-41.8805961558200792
 20
-29.7140387610789674
 30
0.0
 10
-42.7794741558202603
 20
-29.7140387610789105
 30
0.0
  0
SPLINE
  5
60
  8
cut01
 62
256
370
-1
  6
ByLayer
100
AcDbEntity
100
AcDbSpline
 70
8
 71
3
 72
8
 73
4
 74
0
 40
0.0
 40
0.0
 40
0.0
 40
0.0
 40
1.0
 40
1.0
 40
1.0
 40
1.0
 10
-42.7794741558202603
 20
-29.7140387610789105
 30
0.0
 10
-45.1645691558199402
 20
-29.7140387610790242
 30
0.0
 10
-47.2179831558200647
 20
-31.3992577610789283
 30
0.0
 10
-47.6833671558201644
 20
-33.7385277610789274
 30
0.0
  0
SPLINE
  5
61
  8
cut01
 62
256
370
-1
  6
ByLayer
100
AcDbEntity
100
AcDbSpline
 70
8
 71
3
 72
8
 73
4
 74
0
 40
0.0
 40
0.0
 40
0.0
 40
0.0
 40
1.0
 40
1.0
 40
1.0
 40
1.0
 10
70.7532348441799286
 20
-27.8146827610789558
 30
0.0
 10
70.5165208441799507
 20
-27.7804637610789484
 30
0.0
 10
70.2773368441798283
 20
-27.7631777610789925
 30
0.0
 10
70.0381538441798028
 20
-27.7631777610789925
 30
0.0
  0
SPLINE
  5
62
  8
cut01
 62
256
370
-1
  6
ByLayer
100
AcDbEntity
100
AcDbSpline
 70
8
 71
3
 72
8
 73
4
 74
0
 40
0.0
 40
0.0
 40
0.0
 40
0.0
 40
1.0
 40
1.0
 40
1.0
 40
1.0
 10
70.0381538441798028
 20
-27.7631777610789925
 30
0.0
 10
67.2769618441797377
 20
-27.7631777610789925
 30
0.0
 10
65.0382348441798968
 20
-30.001905761078973
 30
0.0
 10
65.0382348441798257
 20
-32.7630967610790833
 30
0.0
  0
SPLINE
  5
63
  8
cut01
 62
256
370
-1
  6
ByLayer
100
AcDbEntity
100
AcDbSpline
 70
8
 71
3
 72
8
 73
4
 74
0
 40
0.0
 40
0.0
 40
0.0
 40
0.0
 40
1.0
 40
1.0
 40
1.0
 40
1.0
 10
65.0382348441798257
 20
-32.7630967610790833
 30
0.0
 10
65.0382348441797546
 20
-33.0904747610790366
 30
0.0
 10
65.0703368441799341
 20
-33.4174997610790854
 30
0.0
 10
65.1341898441800424
 20
-33.7385277610788705
 30
0.0
  0
SPLINE
  5
64
  8
cut01
 62
256
370
-1
  6
ByLayer
100
AcDbEntity
100
AcDbSpline
 70
8
 71
3
 72
8
 73
4
 74
0
 40
0.0
 40
0.0
 40
0.0
 40
0.0
 40
1.0
 40
1.0
 40
1.0
 40
1.0
 10
59.6163928441797779
 20
-5.9978467610790176
 30
0.0
 10
60.0817068441800259
 20
-8.3371167610789314
 30
0.0
 10
62.1352258441798782
 20
-10.0223357610789492
 30
0.0
 10
64.5203568441798296
 20
-10.0223357610789492
 30
0.0
  0
SPLINE
  5
65
  8
cut01
 62
256
370
-1
  6
ByLayer
100
AcDbEntity
100
AcDbSpline
 70
8
 71
3
 72
8
 73
4
 74
0
 40
0.0
 40
0.0
 40
0.0
 40
0.0
 40
1.0
 40
1.0
 40
1.0
 40
1.0
 10
64.5203568441798296
 20
-10.0223357610789492
 30
0.0
 10
65.4192348441798686
 20
-10.0223357610789492
 30
0.0
 10
66.3018848441799094
 20
-9.7799777610789818
 30
0.0
 10
67.0744678441798214
 20
-9.3206607610789831
 30
0.0
  0
LWPOLYLINE
  5
66
  8
cut01
 62
256
370
-1
  6
ByLayer
100
AcDbEntity
100
AcDbPolyline
 90
2
 70
0
 10
-47.6832261558199733
 20
-33.7385277610790411
 10
-49.8015151558199207
 20
-44.3878307610790728
  0
ARC
  5
67
100
AcDbEntity
  8
cut01
 62
256
370
-1
  6
ByLayer
100
AcDbCircle
 10
8.7255528441796955
 20
249.8489138535106804
 30
0.0
 40
300.00113261464179
100
AcDbArc
 50
258.7500485973860691
 51
281.2499514026140446
  0
LWPOLYLINE
  5
68
  8
cut01
 62
256
370
-1
  6
ByLayer
100
AcDbEntity
100
AcDbPolyline
 90
2
 70
0
 10
65.1341898441800424
 20
-33.7385277610788705
 10
67.2526208441796456
 20
-44.3878307610789591
  0
ARC
  5
69
100
AcDbEntity
  8
cut01
 62
256
370
-1
  6
ByLayer
100
AcDbCircle
 10
8.7255523441798744
 20
249.8446748638150154
 30
0.0
 40
249.9969936249563318
100
AcDbArc
 50
258.7498204175348064
 51
281.2501795824651936
  0
LINE
  5
6A
100
AcDbEntity
100
AcDbLine
  8
cut01
 62
256
370
-1
  6
ByLayer
 10
57.4983148441798733
 20
4.651456238921071
 30
0.0
 11
59.6163928441797779
 21
-5.9978467610790176
 31
0.0
  0
LINE
  5
6B
100
AcDbEntity
100
AcDbLine
  8
frame
 62
256
370
-1
  6
ByLayer
 10
-59.8015151558199918
 20
14.651456238921071
 30
0.0
 11
840.1984848441800295
 21
14.6514562389210568
 31
0.0
  0
LINE
  5
6C
100
AcDbEntity
100
AcDbLine
  8
frame
 62
256
370
-1
  6
ByLayer
 10
840.1984848441800295
 20
-585.3485437610788722
 30
0.0
 11
840.1984848441800295
 21
14.6514562389210568
 31
0.0
  0
LINE
  5
6D
100
AcDbEntity
100
AcDbLine
  8
frame
 62
256
370
-1
  6
ByLayer
 10
-59.8015151558200699
 20
-585.3485437610788722
 30
0.0
 11
-59.8015151558199918
 21
14.651456238921071
 31
0.0
  0
LINE
  5
6E
100
AcDbEntity
100
AcDbLine
  8
frame
 62
256
370
-1
  6
ByLayer
 10
-59.8015151558200699
 20
-585.3485437610788722
 30
0.0
 11
840.1984848441800295
 21
-585.3485437610788722
 31
0.0
  0
CIRCLE
  5
6F
100
AcDbEntity
100
AcDbCircle
  8
cut01
 62
256
370
-1
  6
ByLayer
 10
-0.3423712186452317
 20
-59.5559583852985099
 30
0.0
 40
2.5
  0
CIRCLE
  5
70
100
AcDbEntity
100
AcDbCircle
  8
cut01
 62
256
370
-1
  6
ByLayer
 10
11.660924892231419
 20
-59.1353688051341919
 30
0.0
 40
2.5
  0
CIRCLE
  5
71
100
AcDbEntity
100
AcDbCircle
  8
cut01
 62
256
370
-1
  6
ByLayer
 10
23.6494558441334242
 20
-58.7389360650711012
 30
0.0
 40
2.5
  0
CIRCLE
  5
72
100
AcDbEntity
100
AcDbCircle
  8
cut01
 62
256
370
-1
  6
ByLayer
 10
35.6604606032975227
 20
-58.2811659289139925
 30
0.0
 40
2.5
  0
CIRCLE
  5
73
100
AcDbEntity
100
AcDbCircle
  8
cut01
 62
256
370
-1
  6
ByLayer
 10
0.9767966461263029
 20
-97.5485404225871946
 30
0.0
 40
2.5
  0
CIRCLE
  5
74
100
AcDbEntity
100
AcDbCircle
  8
cut01
 62
256
370
-1
  6
ByLayer
 10
12.9650290668931412
 20
-97.1008348599304725
 30
0.0
 40
2.5
  0
CIRCLE
  5
75
100
AcDbEntity
100
AcDbCircle
  8
cut01
 62
256
370
-1
  6
ByLayer
 10
24.9715049646114089
 20
-96.7021574955483345
 30
0.0
 40
2.5
  0
CIRCLE
  5
76
100
AcDbEntity
100
AcDbCircle
  8
cut01
 62
256
370
-1
  6
ByLayer
 10
36.9940691769070895
 20
-96.2811705947218854
 30
0.0
 40
2.5
  0
CIRCLE
  5
77
100
AcDbEntity
100
AcDbCircle
  8
cut01
 62
256
370
-1
  6
ByLayer
 10
28.3026460123035122
 20
-77.4312144630358432
 30
0.0
 40
3.0
  0
CIRCLE
  5
78
100
AcDbEntity
100
AcDbCircle
  8
cut01
 62
256
370
-1
  6
ByLayer
 10
-4.8396568281538705
 20
-77.823201694115852
 30
0.0
 40
11.0
  0
CIRCLE
  5
79
100
AcDbEntity
100
AcDbCircle
  8
cut01
 62
256
370
-1
  6
ByLayer
 10
5.5366338898420189
 20
-68.4235958015460994
 30
0.0
 40
1.6000000000000001
  0
CIRCLE
  5
7A
100
AcDbEntity
100
AcDbCircle
  8
cut01
 62
256
370
-1
  6
ByLayer
 10
-15.2159475461498026
 20
-87.2228075866855477
 30
0.0
 40
1.6000000000000001
  0
SPLINE
  5
7B
  8
cut01
 62
256
370
-1
  6
ByLayer
100
AcDbEntity
100
AcDbSpline
 70
8
 71
3
 72
8
 73
4
 74
0
 40
0.0
 40
0.0
 40
0.0
 40
0.0
 40
1.0
 40
1.0
 40
1.0
 40
1.0
 10
70.7535873441799765
 20
-80.8145827610686922
 30
0.0
 10
71.2270153441798186
 20
-80.883021761068818
 30
0.0
 10
71.7050293441800193
 20
-80.9172417610687091
 30
0.0
 10
72.1833963441798545
 20
-80.9172417610687091
 30
0.0
  0
SPLINE
  5
7C
  8
cut01
 62
256
370
-1
  6
ByLayer
100
AcDbEntity
100
AcDbSpline
 70
8
 71
3
 72
8
 73
4
 74
0
 40
0.0
 40
0.0
 40
0.0
 40
0.0
 40
1.0
 40
1.0
 40
1.0
 40
1.0
 10
72.1833963441798545
 20
-80.9172417610687091
 30
0.0
 10
77.7061323441799061
 20
-80.917241761068766
 30
0.0
 10
82.1832353441799057
 20
-76.439785761068805
 30
0.0
 10
82.1832353441800905
 20
-70.9170497610687391
 30
0.0
  0
SPLINE
  5
7D
  8
cut01
 62
256
370
-1
  6
ByLayer
100
AcDbEntity
100
AcDbSpline
 70
8
 71
3
 72
8
 73
4
 74
0
 40
0.0
 40
0.0
 40
0.0
 40
0.0
 40
1.0
 40
1.0
 40
1.0
 40
1.0
 10
82.1832353441800905
 20
-70.9170497610687391
 30
0.0
 10
82.1832353441799626
 20
-65.3943137610688439
 30
0.0
 10
77.7061323441800909
 20
-60.9172107610687306
 30
0.0
 10
72.183396344179954
 20
-60.9172107610687874
 30
0.0
  0
SPLINE
  5
7E
  8
cut01
 62
256
370
-1
  6
ByLayer
100
AcDbEntity
100
AcDbSpline
 70
8
 71
3
 72
8
 73
4
 74
0
 40
0.0
 40
0.0
 40
0.0
 40
0.0
 40
1.0
 40
1.0
 40
1.0
 40
1.0
 10
72.183396344179954
 20
-60.9172107610687874
 30
0.0
 10
70.3852873441799716
 20
-60.9172107610687874
 30
0.0
 10
68.6203403441800219
 20
-61.4019277610687766
 30
0.0
 10
67.0748213441801795
 20
-62.3205607610687196
 30
0.0
  0
SPLINE
  5
7F
  8
cut01
 62
256
370
-1
  6
ByLayer
100
AcDbEntity
100
AcDbSpline
 70
8
 71
3
 72
8
 73
4
 74
0
 40
0.0
 40
0.0
 40
0.0
 40
0.0
 40
1.0
 40
1.0
 40
1.0
 40
1.0
 10
-40.2250096558198749
 20
-83.4156137610688404
 30
0.0
 10
-38.6791376558200426
 20
-84.3342467610688402
 30
0.0
 10
-36.9145426558198722
 20
-84.8189637610688294
 30
0.0
 10
-35.1164346558200577
 20
-84.8189637610687726
 30
0.0
  0
SPLINE
  5
80
  8
cut01
 62
256
370
-1
  6
ByLayer
100
AcDbEntity
100
AcDbSpline
 70
8
 71
3
 72
8
 73
4
 74
0
 40
0.0
 40
0.0
 40
0.0
 40
0.0
 40
1.0
 40
1.0
 40
1.0
 40
1.0
 10
-35.1164346558200577
 20
-84.8189637610687726
 30
0.0
 10
-29.593698655820031
 20
-84.8189637610688862
 30
0.0
 10
-25.116595655820003
 20
-80.3418607610687161
 30
0.0
 10
-25.1165956558198751
 20
-74.8191247610688208
 30
0.0
  0
SPLINE
  5
81
  8
cut01
 62
256
370
-1
  6
ByLayer
100
AcDbEntity
100
AcDbSpline
 70
8
 71
3
 72
8
 73
4
 74
0
 40
0.0
 40
0.0
 40
0.0
 40
0.0
 40
1.0
 40
1.0
 40
1.0
 40
1.0
 10
-25.1165956558198751
 20
-74.8191247610688208
 30
0.0
 10
-25.1165956558199248
 20
-69.2960357610688504
 30
0.0
 10
-29.5936986558199315
 20
-64.8189327610688508
 30
0.0
 10
-35.1164346558199725
 20
-64.8189327610688508
 30
0.0
  0
SPLINE
  5
82
  8
cut01
 62
256
370
-1
  6
ByLayer
100
AcDbEntity
100
AcDbSpline
 70
8
 71
3
 72
8
 73
4
 74
0
 40
0.0
 40
0.0
 40
0.0
 40
0.0
 40
1.0
 40
1.0
 40
1.0
 40
1.0
 10
-35.1164346558199725
 20
-64.8189327610688508
 30
0.0
 10
-35.5948016558200209
 20
-64.818932761068794
 30
0.0
 10
-36.0728146558199825
 20
-64.853505761068817
 30
0.0
 10
-36.5462426558199809
 20
-64.9215917610688109
 30
0.0
  0
SPLINE
  5
83
  8
cut01
 62
256
370
-1
  6
ByLayer
100
AcDbEntity
100
AcDbSpline
 70
8
 71
3
 72
8
 73
4
 74
0
 40
0.0
 40
0.0
 40
0.0
 40
0.0
 40
1.0
 40
1.0
 40
1.0
 40
1.0
 10
-42.1652876558200518
 20
-58.9977467610688393
 30
0.0
 10
-42.2291396558201768
 20
-59.3187747610687381
 30
0.0
 10
-42.2612426558199417
 20
-59.6457997610689574
 30
0.0
 10
-42.2612426558201548
 20
-59.9731777610688539
 30
0.0
  0
SPLINE
  5
84
  8
cut01
 62
256
370
-1
  6
ByLayer
100
AcDbEntity
100
AcDbSpline
 70
8
 71
3
 72
8
 73
4
 74
0
 40
0.0
 40
0.0
 40
0.0
 40
0.0
 40
1.0
 40
1.0
 40
1.0
 40
1.0
 10
-42.2612426558201548
 20
-59.9731777610688539
 30
0.0
 10
-42.2612426558198848
 20
-62.7343687610687368
 30
0.0
 10
-40.022867655820022
 20
-64.9730967610687742
 30
0.0
 10
-37.2613236558198508
 20
-64.9730967610688879
 30
0.0
  0
SPLINE
  5
85
  8
cut01
 62
256
370
-1
  6
ByLayer
100
AcDbEntity
100
AcDbSpline
 70
8
 71
3
 72
8
 73
4
 74
0
 40
0.0
 40
0.0
 40
0.0
 40
0.0
 40
1.0
 40
1.0
 40
1.0
 40
1.0
 10
-37.2613236558198508
 20
-64.9730967610688879
 30
0.0
 10
-37.0221396558200837
 20
-64.9730967610686605
 30
0.0
 10
-36.783309655820176
 20
-64.9558107610687614
 30
0.0
 10
-36.546595655820127
 20
-64.9219437610687748
 30
0.0
  0
SPLINE
  5
86
  8
cut01
 62
256
370
-1
  6
ByLayer
100
AcDbEntity
100
AcDbSpline
 70
8
 71
3
 72
8
 73
4
 74
0
 40
0.0
 40
0.0
 40
0.0
 40
0.0
 40
1.0
 40
1.0
 40
1.0
 40
1.0
 10
-40.2250096558198749
 20
-83.4156137610688404
 30
0.0
 10
-40.9979456558198905
 20
-82.9562967610687849
 30
0.0
 10
-41.8805956558200023
 20
-82.7139387610687606
 30
0.0
 10
-42.7794736558201834
 20
-82.7139387610687038
 30
0.0
  0
SPLINE
  5
87
  8
cut01
 62
256
370
-1
  6
ByLayer
100
AcDbEntity
100
AcDbSpline
 70
8
 71
3
 72
8
 73
4
 74
0
 40
0.0
 40
0.0
 40
0.0
 40
0.0
 40
1.0
 40
1.0
 40
1.0
 40
1.0
 10
-42.7794736558201834
 20
-82.7139387610687038
 30
0.0
 10
-45.1645686558198634
 20
-82.7139387610688175
 30
0.0
 10
-47.2179826558199807
 20
-84.3991577610687216
 30
0.0
 10
-47.6833666558200804
 20
-86.7384277610687207
 30
0.0
  0
SPLINE
  5
88
  8
cut01
 62
256
370
-1
  6
ByLayer
100
AcDbEntity
100
AcDbSpline
 70
8
 71
3
 72
8
 73
4
 74
0
 40
0.0
 40
0.0
 40
0.0
 40
0.0
 40
1.0
 40
1.0
 40
1.0
 40
1.0
 10
70.7532353441800126
 20
-80.8145827610687491
 30
0.0
 10
70.5165213441800347
 20
-80.7803637610687417
 30
0.0
 10
70.2773373441799123
 20
-80.7630777610687858
 30
0.0
 10
70.0381543441798868
 20
-80.7630777610687858
 30
0.0
  0
SPLINE
  5
89
  8
cut01
 62
256
370
-1
  6
ByLayer
100
AcDbEntity
100
AcDbSpline
 70
8
 71
3
 72
8
 73
4
 74
0
 40
0.0
 40
0.0
 40
0.0
 40
0.0
 40
1.0
 40
1.0
 40
1.0
 40
1.0
 10
70.0381543441798868
 20
-80.7630777610687858
 30
0.0
 10
67.2769623441798217
 20
-80.7630777610687858
 30
0.0
 10
65.0382353441799808
 20
-83.0018057610687663
 30
0.0
 10
65.0382353441799097
 20
-85.7629967610688766
 30
0.0
  0
SPLINE
  5
8A
  8
cut01
 62
256
370
-1
  6
ByLayer
100
AcDbEntity
100
AcDbSpline
 70
8
 71
3
 72
8
 73
4
 74
0
 40
0.0
 40
0.0
 40
0.0
 40
0.0
 40
1.0
 40
1.0
 40
1.0
 40
1.0
 10
65.0382353441799097
 20
-85.7629967610688766
 30
0.0
 10
65.0382353441798386
 20
-86.0903747610688299
 30
0.0
 10
65.0703373441800181
 20
-86.4173997610688787
 30
0.0
 10
65.1341903441801264
 20
-86.7384277610686638
 30
0.0
  0
SPLINE
  5
8B
  8
cut01
 62
256
370
-1
  6
ByLayer
100
AcDbEntity
100
AcDbSpline
 70
8
 71
3
 72
8
 73
4
 74
0
 40
0.0
 40
0.0
 40
0.0
 40
0.0
 40
1.0
 40
1.0
 40
1.0
 40
1.0
 10
59.6163933441798548
 20
-58.9977467610688109
 30
0.0
 10
60.0817073441801028
 20
-61.3370167610687247
 30
0.0
 10
62.135226344179955
 20
-63.0222357610687425
 30
0.0
 10
64.5203573441799136
 20
-63.0222357610687425
 30
0.0
  0
SPLINE
  5
8C
  8
cut01
 62
256
370
-1
  6
ByLayer
100
AcDbEntity
100
AcDbSpline
 70
8
 71
3
 72
8
 73
4
 74
0
 40
0.0
 40
0.0
 40
0.0
 40
0.0
 40
1.0
 40
1.0
 40
1.0
 40
1.0
 10
64.5203573441799136
 20
-63.0222357610687425
 30
0.0
 10
65.4192353441799526
 20
-63.0222357610687425
 30
0.0
 10
66.3018853441799934
 20
-62.779877761068775
 30
0.0
 10
67.0744683441799054
 20
-62.3205607610687764
 30
0.0
  0
LWPOLYLINE
  5
8D
  8
cut01
 62
256
370
-1
  6
ByLayer
100
AcDbEntity
100
AcDbPolyline
 90
2
 70
0
 10
-40.0472096558201258
 20
-48.3484437610687223
 10
-42.1652876558200518
 20
-58.9977467610688393
  0
LWPOLYLINE
  5
8E
  8
cut01
 62
256
370
-1
  6
ByLayer
100
AcDbEntity
100
AcDbPolyline
 90
2
 70
0
 10
-47.6832256558198964
 20
-86.7384277610688343
 10
-49.8015146558198438
 20
-97.3877307610688661
  0
ARC
  5
8F
100
AcDbEntity
  8
cut01
 62
256
370
-1
  6
ByLayer
100
AcDbCircle
 10
8.7255533441797759
 20
196.8490138535208871
 30
0.0
 40
300.00113261464179
100
AcDbArc
 50
258.7500485973860691
 51
281.2499514026140446
  0
LWPOLYLINE
  5
90
  8
cut01
 62
256
370
-1
  6
ByLayer
100
AcDbEntity
100
AcDbPolyline
 90
2
 70
0
 10
65.1341903441801264
 20
-86.7384277610686638
 10
67.2526213441797296
 20
-97.3877307610687524
  0
ARC
  5
91
100
AcDbEntity
  8
cut01
 62
256
370
-1
  6
ByLayer
100
AcDbCircle
 10
8.7255528441799548
 20
196.8447748638252222
 30
0.0
 40
249.9969936249563318
100
AcDbArc
 50
258.7498204175348064
 51
281.2501795824651936
  0
LINE
  5
92
100
AcDbEntity
100
AcDbLine
  8
cut01
 62
256
370
-1
  6
ByLayer
 10
57.4983153441799573
 20
-48.3484437610687223
 30
0.0
 11
59.6163933441798548
 21
-58.9977467610688109
 31
0.0
  0
CIRCLE
  5
93
100
AcDbEntity
100
AcDbCircle
  8
cut01
 62
256
370
-1
  6
ByLayer
 10
-0.3423707186451512
 20
-112.5558583852883032
 30
0.0
 40
2.5
  0
CIRCLE
  5
94
100
AcDbEntity
100
AcDbCircle
  8
cut01
 62
256
370
-1
  6
ByLayer
 10
11.6609253922314995
 20
-112.1352688051239852
 30
0.0
 40
2.5
  0
CIRCLE
  5
95
100
AcDbEntity
100
AcDbCircle
  8
cut01
 62
256
370
-1
  6
ByLayer
 10
23.6494563441335046
 20
-111.7388360650608945
 30
0.0
 40
2.5
  0
CIRCLE
  5
96
100
AcDbEntity
100
AcDbCircle
  8
cut01
 62
256
370
-1
  6
ByLayer
 10
35.6604611032976067
 20
-111.2810659289037858
 30
0.0
 40
2.5
  0
CIRCLE
  5
97
100
AcDbEntity
100
AcDbCircle
  8
cut01
 62
256
370
-1
  6
ByLayer
 10
0.9767971461263834
 20
-150.5484404225769879
 30
0.0
 40
2.5
  0
CIRCLE
  5
98
100
AcDbEntity
100
AcDbCircle
  8
cut01
 62
256
370
-1
  6
ByLayer
 10
12.9650295668932216
 20
-150.1007348599202658
 30
0.0
 40
2.5
  0
CIRCLE
  5
99
100
AcDbEntity
100
AcDbCircle
  8
cut01
 62
256
370
-1
  6
ByLayer
 10
24.9715054646114893
 20
-149.7020574955381278
 30
0.0
 40
2.5
  0
CIRCLE
  5
9A
100
AcDbEntity
100
AcDbCircle
  8
cut01
 62
256
370
-1
  6
ByLayer
 10
36.9940696769071735
 20
-149.2810705947116787
 30
0.0
 40
2.5
  0
CIRCLE
  5
9B
100
AcDbEntity
100
AcDbCircle
  8
cut01
 62
256
370
-1
  6
ByLayer
 10
28.3026465123035926
 20
-130.4311144630256365
 30
0.0
 40
3.0
  0
CIRCLE
  5
9C
100
AcDbEntity
100
AcDbCircle
  8
cut01
 62
256
370
-1
  6
ByLayer
 10
-4.8396563281537901
 20
-130.8231016941056453
 30
0.0
 40
11.0
  0
CIRCLE
  5
9D
100
AcDbEntity
100
AcDbCircle
  8
cut01
 62
256
370
-1
  6
ByLayer
 10
5.5366343898420993
 20
-121.4234958015358927
 30
0.0
 40
1.6000000000000001
  0
CIRCLE
  5
9E
100
AcDbEntity
100
AcDbCircle
  8
cut01
 62
256
370
-1
  6
ByLayer
 10
-15.2159470461497222
 20
-140.222707586675341
 30
0.0
 40
1.6000000000000001
  0
SPLINE
  5
9F
  8
cut01
 62
256
370
-1
  6
ByLayer
100
AcDbEntity
100
AcDbSpline
 70
8
 71
3
 72
8
 73
4
 74
0
 40
0.0
 40
0.0
 40
0.0
 40
0.0
 40
1.0
 40
1.0
 40
1.0
 40
1.0
 10
70.7535878441800605
 20
-133.8144827610584855
 30
0.0
 10
71.2270158441799026
 20
-133.8829217610586113
 30
0.0
 10
71.7050298441801033
 20
-133.9171417610585024
 30
0.0
 10
72.1833968441799243
 20
-133.9171417610585024
 30
0.0
  0
SPLINE
  5
A0
  8
cut01
 62
256
370
-1
  6
ByLayer
100
AcDbEntity
100
AcDbSpline
 70
8
 71
3
 72
8
 73
4
 74
0
 40
0.0
 40
0.0
 40
0.0
 40
0.0
 40
1.0
 40
1.0
 40
1.0
 40
1.0
 10
72.1833968441799243
 20
-133.9171417610585024
 30
0.0
 10
77.7061328441799901
 20
-133.9171417610585593
 30
0.0
 10
82.1832358441799897
 20
-129.4396857610585982
 30
0.0
 10
82.1832358441801603
 20
-123.9169497610585324
 30
0.0
  0
SPLINE
  5
A1
  8
cut01
 62
256
370
-1
  6
ByLayer
100
AcDbEntity
100
AcDbSpline
 70
8
 71
3
 72
8
 73
4
 74
0
 40
0.0
 40
0.0
 40
0.0
 40
0.0
 40
1.0
 40
1.0
 40
1.0
 40
1.0
 10
82.1832358441801603
 20
-123.9169497610585324
 30
0.0
 10
82.1832358441800466
 20
-118.3942137610586371
 30
0.0
 10
77.7061328441801606
 20
-113.9171107610585238
 30
0.0
 10
72.183396844180038
 20
-113.9171107610585807
 30
0.0
  0
SPLINE
  5
A2
  8
cut01
 62
256
370
-1
  6
ByLayer
100
AcDbEntity
100
AcDbSpline
 70
8
 71
3
 72
8
 73
4
 74
0
 40
0.0
 40
0.0
 40
0.0
 40
0.0
 40
1.0
 40
1.0
 40
1.0
 40
1.0
 10
72.183396844180038
 20
-113.9171107610585807
 30
0.0
 10
70.3852878441800556
 20
-113.9171107610585807
 30
0.0
 10
68.6203408441801059
 20
-114.4018277610585699
 30
0.0
 10
67.0748218441802635
 20
-115.3204607610585128
 30
0.0
  0
SPLINE
  5
A3
  8
cut01
 62
256
370
-1
  6
ByLayer
100
AcDbEntity
100
AcDbSpline
 70
8
 71
3
 72
8
 73
4
 74
0
 40
0.0
 40
0.0
 40
0.0
 40
0.0
 40
1.0
 40
1.0
 40
1.0
 40
1.0
 10
-40.225009155819798
 20
-136.4155137610586337
 30
0.0
 10
-38.6791371558199586
 20
-137.3341467610586335
 30
0.0
 10
-36.9145421558197953
 20
-137.8188637610586227
 30
0.0
 10
-35.1164341558199737
 20
-137.8188637610585658
 30
0.0
  0
SPLINE
  5
A4
  8
cut01
 62
256
370
-1
  6
ByLayer
100
AcDbEntity
100
AcDbSpline
 70
8
 71
3
 72
8
 73
4
 74
0
 40
0.0
 40
0.0
 40
0.0
 40
0.0
 40
1.0
 40
1.0
 40
1.0
 40
1.0
 10
-35.1164341558199737
 20
-137.8188637610585658
 30
0.0
 10
-29.5936981558199506
 20
-137.8188637610586795
 30
0.0
 10
-25.1165951558199225
 20
-133.3417607610585094
 30
0.0
 10
-25.1165951558197946
 20
-127.8190247610586141
 30
0.0
  0
SPLINE
  5
A5
  8
cut01
 62
256
370
-1
  6
ByLayer
100
AcDbEntity
100
AcDbSpline
 70
8
 71
3
 72
8
 73
4
 74
0
 40
0.0
 40
0.0
 40
0.0
 40
0.0
 40
1.0
 40
1.0
 40
1.0
 40
1.0
 10
-25.1165951558197946
 20
-127.8190247610586141
 30
0.0
 10
-25.1165951558198444
 20
-122.2959357610586437
 30
0.0
 10
-29.5936981558198511
 20
-117.8188327610586441
 30
0.0
 10
-35.1164341558198885
 20
-117.8188327610586441
 30
0.0
  0
SPLINE
  5
A6
  8
cut01
 62
256
370
-1
  6
ByLayer
100
AcDbEntity
100
AcDbSpline
 70
8
 71
3
 72
8
 73
4
 74
0
 40
0.0
 40
0.0
 40
0.0
 40
0.0
 40
1.0
 40
1.0
 40
1.0
 40
1.0
 10
-35.1164341558198885
 20
-117.8188327610586441
 30
0.0
 10
-35.594801155819944
 20
-117.8188327610585873
 30
0.0
 10
-36.0728141558199056
 20
-117.8534057610586103
 30
0.0
 10
-36.5462421558198969
 20
-117.9214917610586042
 30
0.0
  0
SPLINE
  5
A7
  8
cut01
 62
256
370
-1
  6
ByLayer
100
AcDbEntity
100
AcDbSpline
 70
8
 71
3
 72
8
 73
4
 74
0
 40
0.0
 40
0.0
 40
0.0
 40
0.0
 40
1.0
 40
1.0
 40
1.0
 40
1.0
 10
-42.1652871558199749
 20
-111.9976467610586326
 30
0.0
 10
-42.2291391558200928
 20
-112.3186747610585314
 30
0.0
 10
-42.2612421558198577
 20
-112.6456997610587507
 30
0.0
 10
-42.2612421558200708
 20
-112.9730777610586472
 30
0.0
  0
SPLINE
  5
A8
  8
cut01
 62
256
370
-1
  6
ByLayer
100
AcDbEntity
100
AcDbSpline
 70
8
 71
3
 72
8
 73
4
 74
0
 40
0.0
 40
0.0
 40
0.0
 40
0.0
 40
1.0
 40
1.0
 40
1.0
 40
1.0
 10
-42.2612421558200708
 20
-112.9730777610586472
 30
0.0
 10
-42.2612421558198079
 20
-115.7342687610585301
 30
0.0
 10
-40.022867155819938
 20
-117.9729967610585675
 30
0.0
 10
-37.2613231558197668
 20
-117.9729967610586812
 30
0.0
  0
SPLINE
  5
A9
  8
cut01
 62
256
370
-1
  6
ByLayer
100
AcDbEntity
100
AcDbSpline
 70
8
 71
3
 72
8
 73
4
 74
0
 40
0.0
 40
0.0
 40
0.0
 40
0.0
 40
1.0
 40
1.0
 40
1.0
 40
1.0
 10
-37.2613231558197668
 20
-117.9729967610586812
 30
0.0
 10
-37.0221391558200068
 20
-117.9729967610584538
 30
0.0
 10
-36.783309155820092
 20
-117.9557107610585547
 30
0.0
 10
-36.5465951558200501
 20
-117.9218437610585681
 30
0.0
  0
SPLINE
  5
AA
  8
cut01
 62
256
370
-1
  6
ByLayer
100
AcDbEntity
100
AcDbSpline
 70
8
 71
3
 72
8
 73
4
 74
0
 40
0.0
 40
0.0
 40
0.0
 40
0.0
 40
1.0
 40
1.0
 40
1.0
 40
1.0
 10
-40.225009155819798
 20
-136.4155137610586337
 30
0.0
 10
-40.9979451558198136
 20
-135.9561967610585782
 30
0.0
 10
-41.8805951558199183
 20
-135.7138387610585539
 30
0.0
 10
-42.7794731558200994
 20
-135.7138387610584971
 30
0.0
  0
SPLINE
  5
AB
  8
cut01
 62
256
370
-1
  6
ByLayer
100
AcDbEntity
100
AcDbSpline
 70
8
 71
3
 72
8
 73
4
 74
0
 40
0.0
 40
0.0
 40
0.0
 40
0.0
 40
1.0
 40
1.0
 40
1.0
 40
1.0
 10
-42.7794731558200994
 20
-135.7138387610584971
 30
0.0
 10
-45.1645681558197793
 20
-135.7138387610586108
 30
0.0
 10
-47.2179821558199038
 20
-137.3990577610585149
 30
0.0
 10
-47.6833661558200035
 20
-139.7383277610585139
 30
0.0
  0
SPLINE
  5
AC
  8
cut01
 62
256
370
-1
  6
ByLayer
100
AcDbEntity
100
AcDbSpline
 70
8
 71
3
 72
8
 73
4
 74
0
 40
0.0
 40
0.0
 40
0.0
 40
0.0
 40
1.0
 40
1.0
 40
1.0
 40
1.0
 10
70.7532358441800966
 20
-133.8144827610585423
 30
0.0
 10
70.5165218441801187
 20
-133.780263761058535
 30
0.0
 10
70.2773378441799821
 20
-133.7629777610585791
 30
0.0
 10
70.0381548441799566
 20
-133.7629777610585791
 30
0.0
  0
SPLINE
  5
AD
  8
cut01
 62
256
370
-1
  6
ByLayer
100
AcDbEntity
100
AcDbSpline
 70
8
 71
3
 72
8
 73
4
 74
0
 40
0.0
 40
0.0
 40
0.0
 40
0.0
 40
1.0
 40
1.0
 40
1.0
 40
1.0
 10
70.0381548441799566
 20
-133.7629777610585791
 30
0.0
 10
67.2769628441799057
 20
-133.7629777610585791
 30
0.0
 10
65.0382358441800648
 20
-136.0017057610585596
 30
0.0
 10
65.0382358441799795
 20
-138.7628967610586699
 30
0.0
  0
SPLINE
  5
AE
  8
cut01
 62
256
370
-1
  6
ByLayer
100
AcDbEntity
100
AcDbSpline
 70
8
 71
3
 72
8
 73
4
 74
0
 40
0.0
 40
0.0
 40
0.0
 40
0.0
 40
1.0
 40
1.0
 40
1.0
 40
1.0
 10
65.0382358441799795
 20
-138.7628967610586699
 30
0.0
 10
65.0382358441799227
 20
-139.0902747610586232
 30
0.0
 10
65.0703378441801021
 20
-139.4172997610586719
 30
0.0
 10
65.1341908441802104
 20
-139.7383277610584571
 30
0.0
  0
SPLINE
  5
AF
  8
cut01
 62
256
370
-1
  6
ByLayer
100
AcDbEntity
100
AcDbSpline
 70
8
 71
3
 72
8
 73
4
 74
0
 40
0.0
 40
0.0
 40
0.0
 40
0.0
 40
1.0
 40
1.0
 40
1.0
 40
1.0
 10
59.6163938441799388
 20
-111.9976467610586042
 30
0.0
 10
60.0817078441801868
 20
-114.336916761058518
 30
0.0
 10
62.1352268441800391
 20
-116.0221357610585358
 30
0.0
 10
64.5203578441799834
 20
-116.0221357610585358
 30
0.0
  0
SPLINE
  5
B0
  8
cut01
 62
256
370
-1
  6
ByLayer
100
AcDbEntity
100
AcDbSpline
 70
8
 71
3
 72
8
 73
4
 74
0
 40
0.0
 40
0.0
 40
0.0
 40
0.0
 40
1.0
 40
1.0
 40
1.0
 40
1.0
 10
64.5203578441799834
 20
-116.0221357610585358
 30
0.0
 10
65.4192358441800366
 20
-116.0221357610585358
 30
0.0
 10
66.3018858441800774
 20
-115.7797777610585683
 30
0.0
 10
67.0744688441799894
 20
-115.3204607610585697
 30
0.0
  0
LWPOLYLINE
  5
B1
  8
cut01
 62
256
370
-1
  6
ByLayer
100
AcDbEntity
100
AcDbPolyline
 90
2
 70
0
 10
-40.0472091558200489
 20
-101.3483437610585156
 10
-42.1652871558199749
 20
-111.9976467610586326
  0
LWPOLYLINE
  5
B2
  8
cut01
 62
256
370
-1
  6
ByLayer
100
AcDbEntity
100
AcDbPolyline
 90
2
 70
0
 10
-47.6832251558198124
 20
-139.7383277610586276
 10
-49.8015141558197598
 20
-150.3876307610586593
  0
ARC
  5
B3
100
AcDbEntity
  8
cut01
 62
256
370
-1
  6
ByLayer
100
AcDbCircle
 10
8.7255538441798564
 20
143.8491138535310938
 30
0.0
 40
300.00113261464179
100
AcDbArc
 50
258.7500485973860691
 51
281.2499514026140446
  0
LWPOLYLINE
  5
B4
  8
cut01
 62
256
370
-1
  6
ByLayer
100
AcDbEntity
100
AcDbPolyline
 90
2
 70
0
 10
65.1341908441802104
 20
-139.7383277610584571
 10
67.2526218441797994
 20
-150.3876307610585457
  0
ARC
  5
B5
100
AcDbEntity
  8
cut01
 62
256
370
-1
  6
ByLayer
100
AcDbCircle
 10
8.7255533441800353
 20
143.8448748638354289
 30
0.0
 40
249.9969936249563318
100
AcDbArc
 50
258.7498204175348064
 51
281.2501795824651936
  0
LINE
  5
B6
100
AcDbEntity
100
AcDbLine
  8
cut01
 62
256
370
-1
  6
ByLayer
 10
57.4983158441800342
 20
-101.3483437610585156
 30
0.0
 11
59.6163938441799388
 21
-111.9976467610586042
 31
0.0
  0
CIRCLE
  5
B7
100
AcDbEntity
100
AcDbCircle
  8
cut01
 62
256
370
-1
  6
ByLayer
 10
-0.3423702186450708
 20
-165.5557583852780965
 30
0.0
 40
2.5
  0
CIRCLE
  5
B8
100
AcDbEntity
100
AcDbCircle
  8
cut01
 62
256
370
-1
  6
ByLayer
 10
11.6609258922315799
 20
-165.1351688051137785
 30
0.0
 40
2.5
  0
CIRCLE
  5
B9
100
AcDbEntity
100
AcDbCircle
  8
cut01
 62
256
370
-1
  6
ByLayer
 10
23.6494568441335851
 20
-164.7387360650506878
 30
0.0
 40
2.5
  0
CIRCLE
  5
BA
100
AcDbEntity
100
AcDbCircle
  8
cut01
 62
256
370
-1
  6
ByLayer
 10
35.6604616032976907
 20
-164.2809659288935791
 30
0.0
 40
2.5
  0
CIRCLE
  5
BB
100
AcDbEntity
100
AcDbCircle
  8
cut01
 62
256
370
-1
  6
ByLayer
 10
0.9767976461264638
 20
-203.5483404225667812
 30
0.0
 40
2.5
  0
CIRCLE
  5
BC
100
AcDbEntity
100
AcDbCircle
  8
cut01
 62
256
370
-1
  6
ByLayer
 10
12.9650300668933021
 20
-203.100634859910059
 30
0.0
 40
2.5
  0
CIRCLE
  5
BD
100
AcDbEntity
100
AcDbCircle
  8
cut01
 62
256
370
-1
  6
ByLayer
 10
24.9715059646115698
 20
-202.7019574955279211
 30
0.0
 40
2.5
  0
CIRCLE
  5
BE
100
AcDbEntity
100
AcDbCircle
  8
cut01
 62
256
370
-1
  6
ByLayer
 10
36.9940701769072575
 20
-202.280970594701472
 30
0.0
 40
2.5
  0
CIRCLE
  5
BF
100
AcDbEntity
100
AcDbCircle
  8
cut01
 62
256
370
-1
  6
ByLayer
 10
28.3026470123036731
 20
-183.4310144630154298
 30
0.0
 40
3.0
  0
CIRCLE
  5
C0
100
AcDbEntity
100
AcDbCircle
  8
cut01
 62
256
370
-1
  6
ByLayer
 10
-4.8396558281537096
 20
-183.8230016940954386
 30
0.0
 40
11.0
  0
CIRCLE
  5
C1
100
AcDbEntity
100
AcDbCircle
  8
cut01
 62
256
370
-1
  6
ByLayer
 10
5.5366348898421798
 20
-174.423395801525686
 30
0.0
 40
1.6000000000000001
  0
CIRCLE
  5
C2
100
AcDbEntity
100
AcDbCircle
  8
cut01
 62
256
370
-1
  6
ByLayer
 10
-15.2159465461496417
 20
-193.2226075866651342
 30
0.0
 40
1.6000000000000001
  0
SPLINE
  5
C3
  8
cut01
 62
256
370
-1
  6
ByLayer
100
AcDbEntity
100
AcDbSpline
 70
8
 71
3
 72
8
 73
4
 74
0
 40
0.0
 40
0.0
 40
0.0
 40
0.0
 40
1.0
 40
1.0
 40
1.0
 40
1.0
 10
70.7535883441801303
 20
-186.8143827610482788
 30
0.0
 10
71.2270163441799724
 20
-186.8828217610484046
 30
0.0
 10
71.7050303441801731
 20
-186.9170417610482957
 30
0.0
 10
72.1833973441800083
 20
-186.9170417610482957
 30
0.0
  0
SPLINE
  5
C4
  8
cut01
 62
256
370
-1
  6
ByLayer
100
AcDbEntity
100
AcDbSpline
 70
8
 71
3
 72
8
 73
4
 74
0
 40
0.0
 40
0.0
 40
0.0
 40
0.0
 40
1.0
 40
1.0
 40
1.0
 40
1.0
 10
72.1833973441800083
 20
-186.9170417610482957
 30
0.0
 10
77.7061333441800599
 20
-186.9170417610483526
 30
0.0
 10
82.1832363441800595
 20
-182.4395857610483915
 30
0.0
 10
82.1832363441802443
 20
-176.9168497610483257
 30
0.0
  0
SPLINE
  5
C5
  8
cut01
 62
256
370
-1
  6
ByLayer
100
AcDbEntity
100
AcDbSpline
 70
8
 71
3
 72
8
 73
4
 74
0
 40
0.0
 40
0.0
 40
0.0
 40
0.0
 40
1.0
 40
1.0
 40
1.0
 40
1.0
 10
82.1832363441802443
 20
-176.9168497610483257
 30
0.0
 10
82.1832363441801164
 20
-171.3941137610484304
 30
0.0
 10
77.7061333441802446
 20
-166.9170107610483171
 30
0.0
 10
72.1833973441801078
 20
-166.917010761048374
 30
0.0
  0
SPLINE
  5
C6
  8
cut01
 62
256
370
-1
  6
ByLayer
100
AcDbEntity
100
AcDbSpline
 70
8
 71
3
 72
8
 73
4
 74
0
 40
0.0
 40
0.0
 40
0.0
 40
0.0
 40
1.0
 40
1.0
 40
1.0
 40
1.0
 10
72.1833973441801078
 20
-166.917010761048374
 30
0.0
 10
70.3852883441801254
 20
-166.917010761048374
 30
0.0
 10
68.6203413441801757
 20
-167.4017277610483632
 30
0.0
 10
67.0748223441803333
 20
-168.3203607610483061
 30
0.0
  0
SPLINE
  5
C7
  8
cut01
 62
256
370
-1
  6
ByLayer
100
AcDbEntity
100
AcDbSpline
 70
8
 71
3
 72
8
 73
4
 74
0
 40
0.0
 40
0.0
 40
0.0
 40
0.0
 40
1.0
 40
1.0
 40
1.0
 40
1.0
 10
-40.2250086558197211
 20
-189.415413761048427
 30
0.0
 10
-38.6791366558198746
 20
-190.3340467610484268
 30
0.0
 10
-36.9145416558197184
 20
-190.818763761048416
 30
0.0
 10
-35.1164336558198897
 20
-190.8187637610483591
 30
0.0
  0
SPLINE
  5
C8
  8
cut01
 62
256
370
-1
  6
ByLayer
100
AcDbEntity
100
AcDbSpline
 70
8
 71
3
 72
8
 73
4
 74
0
 40
0.0
 40
0.0
 40
0.0
 40
0.0
 40
1.0
 40
1.0
 40
1.0
 40
1.0
 10
-35.1164336558198897
 20
-190.8187637610483591
 30
0.0
 10
-29.5936976558198701
 20
-190.8187637610484728
 30
0.0
 10
-25.1165946558198421
 20
-186.3416607610483027
 30
0.0
 10
-25.1165946558197142
 20
-180.8189247610484074
 30
0.0
  0
SPLINE
  5
C9
  8
cut01
 62
256
370
-1
  6
ByLayer
100
AcDbEntity
100
AcDbSpline
 70
8
 71
3
 72
8
 73
4
 74
0
 40
0.0
 40
0.0
 40
0.0
 40
0.0
 40
1.0
 40
1.0
 40
1.0
 40
1.0
 10
-25.1165946558197142
 20
-180.8189247610484074
 30
0.0
 10
-25.1165946558197639
 20
-175.295835761048437
 30
0.0
 10
-29.5936976558197706
 20
-170.8187327610484374
 30
0.0
 10
-35.1164336558198045
 20
-170.8187327610484374
 30
0.0
  0
SPLINE
  5
CA
  8
cut01
 62
256
370
-1
  6
ByLayer
100
AcDbEntity
100
AcDbSpline
 70
8
 71
3
 72
8
 73
4
 74
0
 40
0.0
 40
0.0
 40
0.0
 40
0.0
 40
1.0
 40
1.0
 40
1.0
 40
1.0
 10
-35.1164336558198045
 20
-170.8187327610484374
 30
0.0
 10
-35.5948006558198671
 20
-170.8187327610483806
 30
0.0
 10
-36.0728136558198287
 20
-170.8533057610484036
 30
0.0
 10
-36.5462416558198129
 20
-170.9213917610483975
 30
0.0
  0
SPLINE
  5
CB
  8
cut01
 62
256
370
-1
  6
ByLayer
100
AcDbEntity
100
AcDbSpline
 70
8
 71
3
 72
8
 73
4
 74
0
 40
0.0
 40
0.0
 40
0.0
 40
0.0
 40
1.0
 40
1.0
 40
1.0
 40
1.0
 10
-42.165286655819898
 20
-164.9975467610484259
 30
0.0
 10
-42.2291386558200088
 20
-165.3185747610483247
 30
0.0
 10
-42.2612416558197737
 20
-165.645599761048544
 30
0.0
 10
-42.2612416558199868
 20
-165.9729777610484405
 30
0.0
  0
SPLINE
  5
CC
  8
cut01
 62
256
370
-1
  6
ByLayer
100
AcDbEntity
100
AcDbSpline
 70
8
 71
3
 72
8
 73
4
 74
0
 40
0.0
 40
0.0
 40
0.0
 40
0.0
 40
1.0
 40
1.0
 40
1.0
 40
1.0
 10
-42.2612416558199868
 20
-165.9729777610484405
 30
0.0
 10
-42.261241655819731
 20
-168.7341687610483234
 30
0.0
 10
-40.022866655819854
 20
-170.9728967610483608
 30
0.0
 10
-37.2613226558196828
 20
-170.9728967610484744
 30
0.0
  0
SPLINE
  5
CD
  8
cut01
 62
256
370
-1
  6
ByLayer
100
AcDbEntity
100
AcDbSpline
 70
8
 71
3
 72
8
 73
4
 74
0
 40
0.0
 40
0.0
 40
0.0
 40
0.0
 40
1.0
 40
1.0
 40
1.0
 40
1.0
 10
-37.2613226558196828
 20
-170.9728967610484744
 30
0.0
 10
-37.0221386558199299
 20
-170.9728967610482471
 30
0.0
 10
-36.783308655820008
 20
-170.955610761048348
 30
0.0
 10
-36.5465946558199732
 20
-170.9217437610483614
 30
0.0
  0
SPLINE
  5
CE
  8
cut01
 62
256
370
-1
  6
ByLayer
100
AcDbEntity
100
AcDbSpline
 70
8
 71
3
 72
8
 73
4
 74
0
 40
0.0
 40
0.0
 40
0.0
 40
0.0
 40
1.0
 40
1.0
 40
1.0
 40
1.0
 10
-40.2250086558197211
 20
-189.415413761048427
 30
0.0
 10
-40.9979446558197367
 20
-188.9560967610483715
 30
0.0
 10
-41.8805946558198343
 20
-188.7137387610483472
 30
0.0
 10
-42.7794726558200153
 20
-188.7137387610482904
 30
0.0
  0
SPLINE
  5
CF
  8
cut01
 62
256
370
-1
  6
ByLayer
100
AcDbEntity
100
AcDbSpline
 70
8
 71
3
 72
8
 73
4
 74
0
 40
0.0
 40
0.0
 40
0.0
 40
0.0
 40
1.0
 40
1.0
 40
1.0
 40
1.0
 10
-42.7794726558200153
 20
-188.7137387610482904
 30
0.0
 10
-45.1645676558196953
 20
-188.7137387610484041
 30
0.0
 10
-47.2179816558198269
 20
-190.3989577610483082
 30
0.0
 10
-47.6833656558199266
 20
-192.7382277610483072
 30
0.0
  0
SPLINE
  5
D0
  8
cut01
 62
256
370
-1
  6
ByLayer
100
AcDbEntity
100
AcDbSpline
 70
8
 71
3
 72
8
 73
4
 74
0
 40
0.0
 40
0.0
 40
0.0
 40
0.0
 40
1.0
 40
1.0
 40
1.0
 40
1.0
 10
70.7532363441801664
 20
-186.8143827610483356
 30
0.0
 10
70.5165223441801885
 20
-186.7801637610483283
 30
0.0
 10
70.2773383441800661
 20
-186.7628777610483723
 30
0.0
 10
70.0381553441800406
 20
-186.7628777610483723
 30
0.0
  0
SPLINE
  5
D1
  8
cut01
 62
256
370
-1
  6
ByLayer
100
AcDbEntity
100
AcDbSpline
 70
8
 71
3
 72
8
 73
4
 74
0
 40
0.0
 40
0.0
 40
0.0
 40
0.0
 40
1.0
 40
1.0
 40
1.0
 40
1.0
 10
70.0381553441800406
 20
-186.7628777610483723
 30
0.0
 10
67.2769633441799755
 20
-186.7628777610483723
 30
0.0
 10
65.0382363441801346
 20
-189.0016057610483529
 30
0.0
 10
65.0382363441800635
 20
-191.7627967610484632
 30
0.0
  0
SPLINE
  5
D2
  8
cut01
 62
256
370
-1
  6
ByLayer
100
AcDbEntity
100
AcDbSpline
 70
8
 71
3
 72
8
 73
4
 74
0
 40
0.0
 40
0.0
 40
0.0
 40
0.0
 40
1.0
 40
1.0
 40
1.0
 40
1.0
 10
65.0382363441800635
 20
-191.7627967610484632
 30
0.0
 10
65.0382363441799924
 20
-192.0901747610484165
 30
0.0
 10
65.0703383441801719
 20
-192.4171997610484652
 30
0.0
 10
65.1341913441802802
 20
-192.7382277610482504
 30
0.0
  0
SPLINE
  5
D3
  8
cut01
 62
256
370
-1
  6
ByLayer
100
AcDbEntity
100
AcDbSpline
 70
8
 71
3
 72
8
 73
4
 74
0
 40
0.0
 40
0.0
 40
0.0
 40
0.0
 40
1.0
 40
1.0
 40
1.0
 40
1.0
 10
59.6163943441800228
 20
-164.9975467610483975
 30
0.0
 10
60.0817083441802708
 20
-167.3368167610483113
 30
0.0
 10
62.1352273441801231
 20
-169.0220357610483291
 30
0.0
 10
64.5203583441800674
 20
-169.0220357610483291
 30
0.0
  0
SPLINE
  5
D4
  8
cut01
 62
256
370
-1
  6
ByLayer
100
AcDbEntity
100
AcDbSpline
 70
8
 71
3
 72
8
 73
4
 74
0
 40
0.0
 40
0.0
 40
0.0
 40
0.0
 40
1.0
 40
1.0
 40
1.0
 40
1.0
 10
64.5203583441800674
 20
-169.0220357610483291
 30
0.0
 10
65.4192363441801064
 20
-169.0220357610483291
 30
0.0
 10
66.3018863441801471
 20
-168.7796777610483616
 30
0.0
 10
67.0744693441800592
 20
-168.320360761048363
 30
0.0
  0
LWPOLYLINE
  5
D5
  8
cut01
 62
256
370
-1
  6
ByLayer
100
AcDbEntity
100
AcDbPolyline
 90
2
 70
0
 10
-40.047208655819972
 20
-154.3482437610483089
 10
-42.165286655819898
 20
-164.9975467610484259
  0
LWPOLYLINE
  5
D6
  8
cut01
 62
256
370
-1
  6
ByLayer
100
AcDbEntity
100
AcDbPolyline
 90
2
 70
0
 10
-47.6832246558197284
 20
-192.7382277610484209
 10
-49.8015136558196758
 20
-203.3875307610484526
  0
ARC
  5
D7
100
AcDbEntity
  8
cut01
 62
256
370
-1
  6
ByLayer
100
AcDbCircle
 10
8.7255543441799368
 20
90.8492138535413005
 30
0.0
 40
300.00113261464179
100
AcDbArc
 50
258.7500485973860691
 51
281.2499514026140446
  0
LWPOLYLINE
  5
D8
  8
cut01
 62
256
370
-1
  6
ByLayer
100
AcDbEntity
100
AcDbPolyline
 90
2
 70
0
 10
65.1341913441802802
 20
-192.7382277610482504
 10
67.2526223441798834
 20
-203.3875307610483389
  0
ARC
  5
D9
100
AcDbEntity
  8
cut01
 62
256
370
-1
  6
ByLayer
100
AcDbCircle
 10
8.7255538441801157
 20
90.8449748638456356
 30
0.0
 40
249.9969936249563318
100
AcDbArc
 50
258.7498204175348064
 51
281.2501795824651936
  0
LINE
  5
DA
100
AcDbEntity
100
AcDbLine
  8
cut01
 62
256
370
-1
  6
ByLayer
 10
57.4983163441801111
 20
-154.3482437610483089
 30
0.0
 11
59.6163943441800228
 21
-164.9975467610483975
 31
0.0
  0
CIRCLE
  5
DB
100
AcDbEntity
100
AcDbCircle
  8
cut01
 62
256
370
-1
  6
ByLayer
 10
-0.3423697186449903
 20
-218.5556583852678898
 30
0.0
 40
2.5
  0
CIRCLE
  5
DC
100
AcDbEntity
100
AcDbCircle
  8
cut01
 62
256
370
-1
  6
ByLayer
 10
11.6609263922316604
 20
-218.1350688051035718
 30
0.0
 40
2.5
  0
CIRCLE
  5
DD
100
AcDbEntity
100
AcDbCircle
  8
cut01
 62
256
370
-1
  6
ByLayer
 10
23.6494573441336655
 20
-217.7386360650404811
 30
0.0
 40
2.5
  0
CIRCLE
  5
DE
100
AcDbEntity
100
AcDbCircle
  8
cut01
 62
256
370
-1
  6
ByLayer
 10
35.6604621032977676
 20
-217.2808659288833724
 30
0.0
 40
2.5
  0
CIRCLE
  5
DF
100
AcDbEntity
100
AcDbCircle
  8
cut01
 62
256
370
-1
  6
ByLayer
 10
0.9767981461265443
 20
-256.548240422556546
 30
0.0
 40
2.5
  0
CIRCLE
  5
E0
100
AcDbEntity
100
AcDbCircle
  8
cut01
 62
256
370
-1
  6
ByLayer
 10
12.9650305668933825
 20
-256.1005348598998808
 30
0.0
 40
2.5
  0
CIRCLE
  5
E1
100
AcDbEntity
100
AcDbCircle
  8
cut01
 62
256
370
-1
  6
ByLayer
 10
24.9715064646116502
 20
-255.7018574955177144
 30
0.0
 40
2.5
  0
CIRCLE
  5
E2
100
AcDbEntity
100
AcDbCircle
  8
cut01
 62
256
370
-1
  6
ByLayer
 10
36.9940706769073344
 20
-255.2808705946912653
 30
0.0
 40
2.5
  0
CIRCLE
  5
E3
100
AcDbEntity
100
AcDbCircle
  8
cut01
 62
256
370
-1
  6
ByLayer
 10
28.3026475123037535
 20
-236.4309144630052231
 30
0.0
 40
3.0
  0
CIRCLE
  5
E4
100
AcDbEntity
100
AcDbCircle
  8
cut01
 62
256
370
-1
  6
ByLayer
 10
-4.8396553281536292
 20
-236.8229016940852318
 30
0.0
 40
11.0
  0
CIRCLE
  5
E5
100
AcDbEntity
100
AcDbCircle
  8
cut01
 62
256
370
-1
  6
ByLayer
 10
5.5366353898422602
 20
-227.4232958015154793
 30
0.0
 40
1.6000000000000001
  0
CIRCLE
  5
E6
100
AcDbEntity
100
AcDbCircle
  8
cut01
 62
256
370
-1
  6
ByLayer
 10
-15.2159460461495613
 20
-246.2225075866549275
 30
0.0
 40
1.6000000000000001
  0
SPLINE
  5
E7
  8
cut01
 62
256
370
-1
  6
ByLayer
100
AcDbEntity
100
AcDbSpline
 70
8
 71
3
 72
8
 73
4
 74
0
 40
0.0
 40
0.0
 40
0.0
 40
0.0
 40
1.0
 40
1.0
 40
1.0
 40
1.0
 10
70.7535888441802143
 20
-239.8142827610380721
 30
0.0
 10
71.2270168441800564
 20
-239.8827217610381979
 30
0.0
 10
71.7050308441802571
 20
-239.916941761038089
 30
0.0
 10
72.1833978441800923
 20
-239.916941761038089
 30
0.0
  0
SPLINE
  5
E8
  8
cut01
 62
256
370
-1
  6
ByLayer
100
AcDbEntity
100
AcDbSpline
 70
8
 71
3
 72
8
 73
4
 74
0
 40
0.0
 40
0.0
 40
0.0
 40
0.0
 40
1.0
 40
1.0
 40
1.0
 40
1.0
 10
72.1833978441800923
 20
-239.916941761038089
 30
0.0
 10
77.7061338441801439
 20
-239.9169417610381458
 30
0.0
 10
82.1832368441801435
 20
-235.4394857610381848
 30
0.0
 10
82.1832368441803283
 20
-229.916749761038119
 30
0.0
  0
SPLINE
  5
E9
  8
cut01
 62
256
370
-1
  6
ByLayer
100
AcDbEntity
100
AcDbSpline
 70
8
 71
3
 72
8
 73
4
 74
0
 40
0.0
 40
0.0
 40
0.0
 40
0.0
 40
1.0
 40
1.0
 40
1.0
 40
1.0
 10
82.1832368441803283
 20
-229.916749761038119
 30
0.0
 10
82.1832368441802004
 20
-224.3940137610382237
 30
0.0
 10
77.7061338441803287
 20
-219.9169107610381104
 30
0.0
 10
72.1833978441801918
 20
-219.9169107610381673
 30
0.0
  0
SPLINE
  5
EA
  8
cut01
 62
256
370
-1
  6
ByLayer
100
AcDbEntity
100
AcDbSpline
 70
8
 71
3
 72
8
 73
4
 74
0
 40
0.0
 40
0.0
 40
0.0
 40
0.0
 40
1.0
 40
1.0
 40
1.0
 40
1.0
 10
72.1833978441801918
 20
-219.9169107610381673
 30
0.0
 10
70.3852888441802094
 20
-219.9169107610381673
 30
0.0
 10
68.6203418441802597
 20
-220.4016277610381565
 30
0.0
 10
67.0748228441804173
 20
-221.3202607610380994
 30
0.0
  0
SPLINE
  5
EB
  8
cut01
 62
256
370
-1
  6
ByLayer
100
AcDbEntity
100
AcDbSpline
 70
8
 71
3
 72
8
 73
4
 74
0
 40
0.0
 40
0.0
 40
0.0
 40
0.0
 40
1.0
 40
1.0
 40
1.0
 40
1.0
 10
-40.2250081558196371
 20
-242.4153137610382203
 30
0.0
 10
-38.6791361558197977
 20
-243.3339467610382201
 30
0.0
 10
-36.9145411558196344
 20
-243.8186637610382093
 30
0.0
 10
-35.1164331558198128
 20
-243.8186637610381524
 30
0.0
  0
SPLINE
  5
EC
  8
cut01
 62
256
370
-1
  6
ByLayer
100
AcDbEntity
100
AcDbSpline
 70
8
 71
3
 72
8
 73
4
 74
0
 40
0.0
 40
0.0
 40
0.0
 40
0.0
 40
1.0
 40
1.0
 40
1.0
 40
1.0
 10
-35.1164331558198128
 20
-243.8186637610381524
 30
0.0
 10
-29.5936971558197897
 20
-243.8186637610382661
 30
0.0
 10
-25.1165941558197616
 20
-239.341560761038096
 30
0.0
 10
-25.1165941558196337
 20
-233.8188247610382007
 30
0.0
  0
SPLINE
  5
ED
  8
cut01
 62
256
370
-1
  6
ByLayer
100
AcDbEntity
100
AcDbSpline
 70
8
 71
3
 72
8
 73
4
 74
0
 40
0.0
 40
0.0
 40
0.0
 40
0.0
 40
1.0
 40
1.0
 40
1.0
 40
1.0
 10
-25.1165941558196337
 20
-233.8188247610382007
 30
0.0
 10
-25.1165941558196835
 20
-228.2957357610382303
 30
0.0
 10
-29.5936971558196902
 20
-223.8186327610382307
 30
0.0
 10
-35.1164331558197276
 20
-223.8186327610382307
 30
0.0
  0
SPLINE
  5
EE
  8
cut01
 62
256
370
-1
  6
ByLayer
100
AcDbEntity
100
AcDbSpline
 70
8
 71
3
 72
8
 73
4
 74
0
 40
0.0
 40
0.0
 40
0.0
 40
0.0
 40
1.0
 40
1.0
 40
1.0
 40
1.0
 10
-35.1164331558197276
 20
-223.8186327610382307
 30
0.0
 10
-35.5948001558197831
 20
-223.8186327610381738
 30
0.0
 10
-36.0728131558197447
 20
-223.8532057610381969
 30
0.0
 10
-36.546241155819736
 20
-223.9212917610381908
 30
0.0
  0
SPLINE
  5
EF
  8
cut01
 62
256
370
-1
  6
ByLayer
100
AcDbEntity
100
AcDbSpline
 70
8
 71
3
 72
8
 73
4
 74
0
 40
0.0
 40
0.0
 40
0.0
 40
0.0
 40
1.0
 40
1.0
 40
1.0
 40
1.0
 10
-42.165286155819814
 20
-217.9974467610382192
 30
0.0
 10
-42.2291381558199319
 20
-218.318474761038118
 30
0.0
 10
-42.2612411558196968
 20
-218.6454997610383373
 30
0.0
 10
-42.2612411558199099
 20
-218.9728777610382338
 30
0.0
  0
SPLINE
  5
F0
  8
cut01
 62
256
370
-1
  6
ByLayer
100
AcDbEntity
100
AcDbSpline
 70
8
 71
3
 72
8
 73
4
 74
0
 40
0.0
 40
0.0
 40
0.0
 40
0.0
 40
1.0
 40
1.0
 40
1.0
 40
1.0
 10
-42.2612411558199099
 20
-218.9728777610382338
 30
0.0
 10
-42.261241155819647
 20
-221.7340687610381167
 30
0.0
 10
-40.0228661558197771
 20
-223.972796761038154
 30
0.0
 10
-37.2613221558196059
 20
-223.9727967610382677
 30
0.0
  0
SPLINE
  5
F1
  8
cut01
 62
256
370
-1
  6
ByLayer
100
AcDbEntity
100
AcDbSpline
 70
8
 71
3
 72
8
 73
4
 74
0
 40
0.0
 40
0.0
 40
0.0
 40
0.0
 40
1.0
 40
1.0
 40
1.0
 40
1.0
 10
-37.2613221558196059
 20
-223.9727967610382677
 30
0.0
 10
-37.0221381558198459
 20
-223.9727967610380404
 30
0.0
 10
-36.7833081558199311
 20
-223.9555107610381413
 30
0.0
 10
-36.5465941558198892
 20
-223.9216437610381547
 30
0.0
  0
SPLINE
  5
F2
  8
cut01
 62
256
370
-1
  6
ByLayer
100
AcDbEntity
100
AcDbSpline
 70
8
 71
3
 72
8
 73
4
 74
0
 40
0.0
 40
0.0
 40
0.0
 40
0.0
 40
1.0
 40
1.0
 40
1.0
 40
1.0
 10
-40.2250081558196371
 20
-242.4153137610382203
 30
0.0
 10
-40.9979441558196527
 20
-241.9559967610381648
 30
0.0
 10
-41.8805941558197574
 20
-241.7136387610381405
 30
0.0
 10
-42.7794721558199385
 20
-241.7136387610380837
 30
0.0
  0
SPLINE
  5
F3
  8
cut01
 62
256
370
-1
  6
ByLayer
100
AcDbEntity
100
AcDbSpline
 70
8
 71
3
 72
8
 73
4
 74
0
 40
0.0
 40
0.0
 40
0.0
 40
0.0
 40
1.0
 40
1.0
 40
1.0
 40
1.0
 10
-42.7794721558199385
 20
-241.7136387610380837
 30
0.0
 10
-45.1645671558196184
 20
-241.7136387610381973
 30
0.0
 10
-47.2179811558197429
 20
-243.3988577610381014
 30
0.0
 10
-47.6833651558198426
 20
-245.7381277610381005
 30
0.0
  0
SPLINE
  5
F4
  8
cut01
 62
256
370
-1
  6
ByLayer
100
AcDbEntity
100
AcDbSpline
 70
8
 71
3
 72
8
 73
4
 74
0
 40
0.0
 40
0.0
 40
0.0
 40
0.0
 40
1.0
 40
1.0
 40
1.0
 40
1.0
 10
70.7532368441802504
 20
-239.8142827610381289
 30
0.0
 10
70.5165228441802725
 20
-239.7800637610381216
 30
0.0
 10
70.2773388441801501
 20
-239.7627777610381656
 30
0.0
 10
70.0381558441801246
 20
-239.7627777610381656
 30
0.0
  0
SPLINE
  5
F5
  8
cut01
 62
256
370
-1
  6
ByLayer
100
AcDbEntity
100
AcDbSpline
 70
8
 71
3
 72
8
 73
4
 74
0
 40
0.0
 40
0.0
 40
0.0
 40
0.0
 40
1.0
 40
1.0
 40
1.0
 40
1.0
 10
70.0381558441801246
 20
-239.7627777610381656
 30
0.0
 10
67.2769638441800595
 20
-239.7627777610381656
 30
0.0
 10
65.0382368441802186
 20
-242.0015057610381461
 30
0.0
 10
65.0382368441801475
 20
-244.7626967610382565
 30
0.0
  0
SPLINE
  5
F6
  8
cut01
 62
256
370
-1
  6
ByLayer
100
AcDbEntity
100
AcDbSpline
 70
8
 71
3
 72
8
 73
4
 74
0
 40
0.0
 40
0.0
 40
0.0
 40
0.0
 40
1.0
 40
1.0
 40
1.0
 40
1.0
 10
65.0382368441801475
 20
-244.7626967610382565
 30
0.0
 10
65.0382368441800764
 20
-245.0900747610382098
 30
0.0
 10
65.0703388441802559
 20
-245.4170997610382585
 30
0.0
 10
65.1341918441803642
 20
-245.7381277610380437
 30
0.0
  0
SPLINE
  5
F7
  8
cut01
 62
256
370
-1
  6
ByLayer
100
AcDbEntity
100
AcDbSpline
 70
8
 71
3
 72
8
 73
4
 74
0
 40
0.0
 40
0.0
 40
0.0
 40
0.0
 40
1.0
 40
1.0
 40
1.0
 40
1.0
 10
59.6163948441800997
 20
-217.9974467610381907
 30
0.0
 10
60.0817088441803477
 20
-220.3367167610381046
 30
0.0
 10
62.1352278441802
 20
-222.0219357610381223
 30
0.0
 10
64.5203588441801514
 20
-222.0219357610381223
 30
0.0
  0
SPLINE
  5
F8
  8
cut01
 62
256
370
-1
  6
ByLayer
100
AcDbEntity
100
AcDbSpline
 70
8
 71
3
 72
8
 73
4
 74
0
 40
0.0
 40
0.0
 40
0.0
 40
0.0
 40
1.0
 40
1.0
 40
1.0
 40
1.0
 10
64.5203588441801514
 20
-222.0219357610381223
 30
0.0
 10
65.4192368441801904
 20
-222.0219357610381223
 30
0.0
 10
66.3018868441802312
 20
-221.7795777610381549
 30
0.0
 10
67.0744698441801432
 20
-221.3202607610381563
 30
0.0
  0
LWPOLYLINE
  5
F9
  8
cut01
 62
256
370
-1
  6
ByLayer
100
AcDbEntity
100
AcDbPolyline
 90
2
 70
0
 10
-40.047208155819888
 20
-207.3481437610381022
 10
-42.165286155819814
 20
-217.9974467610382192
  0
LWPOLYLINE
  5
FA
  8
cut01
 62
256
370
-1
  6
ByLayer
100
AcDbEntity
100
AcDbPolyline
 90
2
 70
0
 10
-47.6832241558196515
 20
-245.7381277610382142
 10
-49.8015131558195989
 20
-256.3874307610382175
  0
ARC
  5
FB
100
AcDbEntity
  8
cut01
 62
256
370
-1
  6
ByLayer
100
AcDbCircle
 10
8.7255548441800173
 20
37.8493138535515072
 30
0.0
 40
300.00113261464179
100
AcDbArc
 50
258.7500485973860691
 51
281.2499514026140446
  0
LWPOLYLINE
  5
FC
  8
cut01
 62
256
370
-1
  6
ByLayer
100
AcDbEntity
100
AcDbPolyline
 90
2
 70
0
 10
65.1341918441803642
 20
-245.7381277610380437
 10
67.2526228441799674
 20
-256.3874307610381038
  0
ARC
  5
FD
100
AcDbEntity
  8
cut01
 62
256
370
-1
  6
ByLayer
100
AcDbCircle
 10
8.7255543441801962
 20
37.8450748638558423
 30
0.0
 40
249.9969936249563318
100
AcDbArc
 50
258.7498204175348064
 51
281.2501795824651936
  0
LINE
  5
FE
100
AcDbEntity
100
AcDbLine
  8
cut01
 62
256
370
-1
  6
ByLayer
 10
57.4983168441801951
 20
-207.3481437610381022
 30
0.0
 11
59.6163948441800997
 21
-217.9974467610381907
 31
0.0
  0
MTEXT
  5
FF
100
AcDbEntity
100
AcDbMText
  8
engrave01
 62
256
370
-1
  6
ByLayer
 10
35.1148957087306286
 20
-235.8788634901119678
 30
0.0
 40
4.0
 41
100.0
 71
4
 72
0
  1
P/N: 16CCMA01\PT/N: ____
  7
standard
 50
9.7500000000000036
 73
1
 44
1.0
  0
LINE
  5
100
100
AcDbEntity
100
AcDbLine
  8
cut01
 62
256
370
-1
  6
ByLayer
 10
-40.0472101558202098
 20
4.651456238921071
 30
0.0
 11
-42.1652881558201358
 21
-5.997846761079046
 31
0.0
  0
CIRCLE
  5
101
100
AcDbEntity
100
AcDbCircle
  8
cut
 62
256
370
-1
  6
ByLayer
 10
-0.3423697186449246
 20
-218.5556583852679182
 30
0.0
 40
2.5
  0
CIRCLE
  5
102
100
AcDbEntity
100
AcDbCircle
  8
cut
 62
256
370
-1
  6
ByLayer
 10
11.660926392231751
 20
-218.1350688051036286
 30
0.0
 40
2.5
  0
CIRCLE
  5
103
100
AcDbEntity
100
AcDbCircle
  8
cut
 62
256
370
-1
  6
ByLayer
 10
23.6494573441337366
 20
-217.7386360650404811
 30
0.0
 40
2.5
  0
CIRCLE
  5
104
100
AcDbEntity
100
AcDbCircle
  8
cut
 62
256
370
-1
  6
ByLayer
 10
35.660462103297732
 20
-217.2808659288834292
 30
0.0
 40
2.5
  0
CIRCLE
  5
105
100
AcDbEntity
100
AcDbCircle
  8
cut
 62
256
370
-1
  6
ByLayer
 10
0.9767981461264839
 20
-256.5482404225566029
 30
0.0
 40
2.5
  0
CIRCLE
  5
106
100
AcDbEntity
100
AcDbCircle
  8
cut
 62
256
370
-1
  6
ByLayer
 10
12.9650305668934109
 20
-256.1005348598999376
 30
0.0
 40
2.5
  0
CIRCLE
  5
107
100
AcDbEntity
100
AcDbCircle
  8
cut
 62
256
370
-1
  6
ByLayer
 10
24.9715064646117924
 20
-255.7018574955176859
 30
0.0
 40
2.5
  0
CIRCLE
  5
108
100
AcDbEntity
100
AcDbCircle
  8
cut
 62
256
370
-1
  6
ByLayer
 10
36.9940706769073273
 20
-255.2808705946912937
 30
0.0
 40
2.5
  0
CIRCLE
  5
109
100
AcDbEntity
100
AcDbCircle
  8
cut
 62
256
370
-1
  6
ByLayer
 10
28.30264751230375
 20
-236.4309144630052515
 30
0.0
 40
3.0
  0
CIRCLE
  5
10A
100
AcDbEntity
100
AcDbCircle
  8
cut
 62
256
370
-1
  6
ByLayer
 10
-4.8396553281535475
 20
-236.8229016940852603
 30
0.0
 40
11.0
  0
CIRCLE
  5
10B
100
AcDbEntity
100
AcDbCircle
  8
cut
 62
256
370
-1
  6
ByLayer
 10
5.5366353898423952
 20
-227.4232958015154793
 30
0.0
 40
1.6000000000000001
  0
CIRCLE
  5
10C
100
AcDbEntity
100
AcDbCircle
  8
cut
 62
256
370
-1
  6
ByLayer
 10
-15.2159460461494831
 20
-246.2225075866549844
 30
0.0
 40
1.6000000000000001
  0
MTEXT
  5
10D
100
AcDbEntity
100
AcDbMText
  8
engrave
 62
256
370
-1
  6
ByLayer
 10
35.1148957087307565
 20
-235.8788634901119963
 30
0.0
 40
4.0
 41
100.0
 71
4
 72
0
  1
P/N: 16CCMA01\PT/N: ____
  7
standard
 50
9.7500000000000036
 73
1
 44
1.0
  0
LINE
  5
10E
100
AcDbEntity
100
AcDbLine
  8
cut
 62
256
370
-1
  6
ByLayer
 10
57.49795283632902
 20
-207.3463816898611469
 30
0.0
 11
59.6164094629921379
 21
-217.9955769803234489
 31
0.0
  0
ARC
  5
10F
100
AcDbEntity
  8
cut
 62
256
370
-1
  6
ByLayer
100
AcDbCircle
 10
72.1834713734457694
 20
-229.9148452019394426
 30
0.0
 40
10.0
100
AcDbArc
 50
261.7798143655086847
 51
120.7222556344911197
  0
LINE
  5
110
100
AcDbEntity
100
AcDbLine
  8
cut
 62
256
370
-1
  6
ByLayer
 10
-40.0472081558199591
 20
-207.3481437610381306
 30
0.0
 11
-42.1652800436131798
 21
-217.997415580819677
 31
0.0
  0
ARC
  5
111
100
AcDbEntity
  8
cut
 62
256
370
-1
  6
ByLayer
100
AcDbCircle
 10
-35.1161352350709208
 20
-233.818589919919873
 30
0.0
 40
10.0
100
AcDbArc
 50
239.2798143655087415
 51
98.2222540660087589
  0
ARC
  5
112
100
AcDbEntity
  8
cut
 62
256
370
-1
  6
ByLayer
100
AcDbCircle
 10
-37.2613360216853664
 20
-218.9727786054410217
 30
0.0
 40
5.0
100
AcDbArc
 50
168.7510349999999448
 51
278.2222587714558699
  0
ARC
  5
113
100
AcDbEntity
  8
cut
 62
256
370
-1
  6
ByLayer
100
AcDbCircle
 10
-42.7788224923122939
 20
-246.7136751851560632
 30
0.0
 40
5.0
100
AcDbArc
 50
59.2798143655087344
 51
168.7510350000000585
  0
LINE
  5
114
100
AcDbEntity
100
AcDbLine
  8
cut
 62
256
370
-1
  6
ByLayer
 10
-47.6827665142401145
 20
-245.7383121605347469
 30
0.0
 11
-49.8008384020333281
 21
-256.387583980316208
 31
0.0
  0
ARC
  5
115
100
AcDbEntity
  8
cut
 62
256
370
-1
  6
ByLayer
100
AcDbCircle
 10
8.7209430752469359
 20
37.8490573353524553
 30
0.0
 40
300.0
100
AcDbArc
 50
258.7510350000000017
 51
281.2510349999999448
  0
ARC
  5
116
100
AcDbEntity
  8
cut
 62
256
370
-1
  6
ByLayer
100
AcDbCircle
 10
70.038806942386401
 20
-244.760734009220414
 30
0.0
 40
5.0
100
AcDbArc
 50
81.7798143655087557
 51
191.2510350000000869
  0
LINE
  5
117
100
AcDbEntity
100
AcDbLine
  8
cut
 62
256
370
-1
  6
ByLayer
 10
65.1348981618821767
 20
-245.736274204441969
 30
0.0
 11
67.2533547885452947
 21
-256.3854694949040436
 31
0.0
  0
ARC
  5
118
100
AcDbEntity
  8
cut
 62
256
370
-1
  6
ByLayer
100
AcDbCircle
 10
64.5203182434962912
 20
-217.0200367851017518
 30
0.0
 40
5.0
100
AcDbArc
 50
191.2510349999999733
 51
300.7222556344913755
  0
ARC
  5
119
100
AcDbEntity
  8
cut
 62
256
370
-1
  6
ByLayer
100
AcDbCircle
 10
8.7209430752469359
 20
37.8490573353524553
 30
0.0
 40
250.0
100
AcDbArc
 50
258.7510350000000017
 51
281.2510349999999448
  0
CIRCLE
  5
11A
100
AcDbEntity
100
AcDbCircle
  8
cut
 62
256
370
-1
  6
ByLayer
 10
-0.3423692186448406
 20
-271.5555583852577115
 30
0.0
 40
2.5
  0
CIRCLE
  5
11B
100
AcDbEntity
100
AcDbCircle
  8
cut
 62
256
370
-1
  6
ByLayer
 10
11.660926892231835
 20
-271.1349688050934219
 30
0.0
 40
2.5
  0
CIRCLE
  5
11C
100
AcDbEntity
100
AcDbCircle
  8
cut
 62
256
370
-1
  6
ByLayer
 10
23.6494578441338206
 20
-270.7385360650303028
 30
0.0
 40
2.5
  0
CIRCLE
  5
11D
100
AcDbEntity
100
AcDbCircle
  8
cut
 62
256
370
-1
  6
ByLayer
 10
35.660462603297816
 20
-270.2807659288732225
 30
0.0
 40
2.5
  0
CIRCLE
  5
11E
100
AcDbEntity
100
AcDbCircle
  8
cut
 62
256
370
-1
  6
ByLayer
 10
0.9767986461265679
 20
-309.5481404225463962
 30
0.0
 40
2.5
  0
CIRCLE
  5
11F
100
AcDbEntity
100
AcDbCircle
  8
cut
 62
256
370
-1
  6
ByLayer
 10
12.9650310668934949
 20
-309.1004348598897309
 30
0.0
 40
2.5
  0
CIRCLE
  5
120
100
AcDbEntity
100
AcDbCircle
  8
cut
 62
256
370
-1
  6
ByLayer
 10
24.9715069646118764
 20
-308.7017574955074792
 30
0.0
 40
2.5
  0
CIRCLE
  5
121
100
AcDbEntity
100
AcDbCircle
  8
cut
 62
256
370
-1
  6
ByLayer
 10
36.9940711769074113
 20
-308.280770594681087
 30
0.0
 40
2.5
  0
CIRCLE
  5
122
100
AcDbEntity
100
AcDbCircle
  8
cut
 62
256
370
-1
  6
ByLayer
 10
28.302648012303834
 20
-289.4308144629950448
 30
0.0
 40
3.0
  0
CIRCLE
  5
123
100
AcDbEntity
100
AcDbCircle
  8
cut
 62
256
370
-1
  6
ByLayer
 10
-4.8396548281534635
 20
-289.8228016940750535
 30
0.0
 40
11.0
  0
CIRCLE
  5
124
100
AcDbEntity
100
AcDbCircle
  8
cut
 62
256
370
-1
  6
ByLayer
 10
5.5366358898424792
 20
-280.4231958015052442
 30
0.0
 40
1.6000000000000001
  0
CIRCLE
  5
125
100
AcDbEntity
100
AcDbCircle
  8
cut
 62
256
370
-1
  6
ByLayer
 10
-15.2159455461493991
 20
-299.2224075866447492
 30
0.0
 40
1.6000000000000001
  0
MTEXT
  5
126
100
AcDbEntity
100
AcDbMText
  8
engrave
 62
256
370
-1
  6
ByLayer
 10
35.1148962087308405
 20
-288.8787634901017896
 30
0.0
 40
4.0
 41
100.0
 71
4
 72
0
  1
P/N: 16CCMA01\PT/N: ____
  7
standard
 50
9.7500000000000036
 73
1
 44
1.0
  0
LINE
  5
127
100
AcDbEntity
100
AcDbLine
  8
cut
 62
256
370
-1
  6
ByLayer
 10
57.497953336329104
 20
-260.3462816898509118
 30
0.0
 11
59.6164099629922219
 21
-270.9954769803132422
 31
0.0
  0
ARC
  5
128
100
AcDbEntity
  8
cut
 62
256
370
-1
  6
ByLayer
100
AcDbCircle
 10
72.1834718734458534
 20
-282.9147452019292359
 30
0.0
 40
10.0
100
AcDbArc
 50
261.7798143655086847
 51
120.7222556344911197
  0
LINE
  5
129
100
AcDbEntity
100
AcDbLine
  8
cut
 62
256
370
-1
  6
ByLayer
 10
-40.0472076558198751
 20
-260.3480437610279523
 30
0.0
 11
-42.1652795436130958
 21
-270.9973155808094702
 31
0.0
  0
ARC
  5
12A
100
AcDbEntity
  8
cut
 62
256
370
-1
  6
ByLayer
100
AcDbCircle
 10
-35.1161347350708368
 20
-286.8184899199096662
 30
0.0
 40
10.0
100
AcDbArc
 50
239.2798143655087415
 51
98.2222540660087589
  0
ARC
  5
12B
100
AcDbEntity
  8
cut
 62
256
370
-1
  6
ByLayer
100
AcDbCircle
 10
-37.2613355216852824
 20
-271.972678605430815
 30
0.0
 40
5.0
100
AcDbArc
 50
168.7510349999999448
 51
278.2222587714558699
  0
ARC
  5
12C
100
AcDbEntity
  8
cut
 62
256
370
-1
  6
ByLayer
100
AcDbCircle
 10
-42.7788219923122099
 20
-299.7135751851458281
 30
0.0
 40
5.0
100
AcDbArc
 50
59.2798143655087344
 51
168.7510350000000585
  0
LINE
  5
12D
100
AcDbEntity
100
AcDbLine
  8
cut
 62
256
370
-1
  6
ByLayer
 10
-47.6827660142400305
 20
-298.7382121605245402
 30
0.0
 11
-49.8008379020332441
 21
-309.3874839803060013
 31
0.0
  0
ARC
  5
12E
100
AcDbEntity
  8
cut
 62
256
370
-1
  6
ByLayer
100
AcDbCircle
 10
8.7209435752470199
 20
-15.150842664637338
 30
0.0
 40
300.0
100
AcDbArc
 50
258.7510350000000017
 51
281.2510349999999448
  0
ARC
  5
12F
100
AcDbEntity
  8
cut
 62
256
370
-1
  6
ByLayer
100
AcDbCircle
 10
70.038807442386485
 20
-297.7606340092102073
 30
0.0
 40
5.0
100
AcDbArc
 50
81.7798143655087557
 51
191.2510350000000869
  0
LINE
  5
130
100
AcDbEntity
100
AcDbLine
  8
cut
 62
256
370
-1
  6
ByLayer
 10
65.1348986618822607
 20
-298.7361742044317907
 30
0.0
 11
67.2533552885453787
 21
-309.3853694948938369
 31
0.0
  0
ARC
  5
131
100
AcDbEntity
  8
cut
 62
256
370
-1
  6
ByLayer
100
AcDbCircle
 10
64.5203187434963752
 20
-270.0199367850915451
 30
0.0
 40
5.0
100
AcDbArc
 50
191.2510349999999733
 51
300.7222556344913755
  0
ARC
  5
132
100
AcDbEntity
  8
cut
 62
256
370
-1
  6
ByLayer
100
AcDbCircle
 10
8.7209435752470199
 20
-15.150842664637338
 30
0.0
 40
250.0
100
AcDbArc
 50
258.7510350000000017
 51
281.2510349999999448
  0
CIRCLE
  5
133
100
AcDbEntity
100
AcDbCircle
  8
cut
 62
256
370
-1
  6
ByLayer
 10
-0.3423687186447566
 20
-324.5554583852475048
 30
0.0
 40
2.5
  0
CIRCLE
  5
134
100
AcDbEntity
100
AcDbCircle
  8
cut
 62
256
370
-1
  6
ByLayer
 10
11.660927392231919
 20
-324.1348688050832152
 30
0.0
 40
2.5
  0
CIRCLE
  5
135
100
AcDbEntity
100
AcDbCircle
  8
cut
 62
256
370
-1
  6
ByLayer
 10
23.6494583441339046
 20
-323.7384360650200961
 30
0.0
 40
2.5
  0
CIRCLE
  5
136
100
AcDbEntity
100
AcDbCircle
  8
cut
 62
256
370
-1
  6
ByLayer
 10
35.6604631032979
 20
-323.2806659288630158
 30
0.0
 40
2.5
  0
CIRCLE
  5
137
100
AcDbEntity
100
AcDbCircle
  8
cut
 62
256
370
-1
  6
ByLayer
 10
0.9767991461266519
 20
-362.5480404225361895
 30
0.0
 40
2.5
  0
CIRCLE
  5
138
100
AcDbEntity
100
AcDbCircle
  8
cut
 62
256
370
-1
  6
ByLayer
 10
12.9650315668935789
 20
-362.1003348598795242
 30
0.0
 40
2.5
  0
CIRCLE
  5
139
100
AcDbEntity
100
AcDbCircle
  8
cut
 62
256
370
-1
  6
ByLayer
 10
24.9715074646119604
 20
-361.7016574954972725
 30
0.0
 40
2.5
  0
CIRCLE
  5
13A
100
AcDbEntity
100
AcDbCircle
  8
cut
 62
256
370
-1
  6
ByLayer
 10
36.9940716769074953
 20
-361.2806705946708803
 30
0.0
 40
2.5
  0
CIRCLE
  5
13B
100
AcDbEntity
100
AcDbCircle
  8
cut
 62
256
370
-1
  6
ByLayer
 10
28.302648512303918
 20
-342.4307144629848381
 30
0.0
 40
3.0
  0
CIRCLE
  5
13C
100
AcDbEntity
100
AcDbCircle
  8
cut
 62
256
370
-1
  6
ByLayer
 10
-4.8396543281533795
 20
-342.8227016940648468
 30
0.0
 40
11.0
  0
CIRCLE
  5
13D
100
AcDbEntity
100
AcDbCircle
  8
cut
 62
256
370
-1
  6
ByLayer
 10
5.5366363898425632
 20
-333.4230958014950374
 30
0.0
 40
1.6000000000000001
  0
CIRCLE
  5
13E
100
AcDbEntity
100
AcDbCircle
  8
cut
 62
256
370
-1
  6
ByLayer
 10
-15.2159450461493151
 20
-352.2223075866345425
 30
0.0
 40
1.6000000000000001
  0
MTEXT
  5
13F
100
AcDbEntity
100
AcDbMText
  8
engrave
 62
256
370
-1
  6
ByLayer
 10
35.1148967087309245
 20
-341.8786634900915828
 30
0.0
 40
4.0
 41
100.0
 71
4
 72
0
  1
P/N: 16CCMA01\PT/N: ____
  7
standard
 50
9.7500000000000036
 73
1
 44
1.0
  0
LINE
  5
140
100
AcDbEntity
100
AcDbLine
  8
cut
 62
256
370
-1
  6
ByLayer
 10
57.4979538363291027
 20
-313.3461816898409893
 30
0.0
 11
59.6164104629922065
 21
-323.9953769803030355
 31
0.0
  0
ARC
  5
141
100
AcDbEntity
  8
cut
 62
256
370
-1
  6
ByLayer
100
AcDbCircle
 10
72.1834723734459374
 20
-335.9146452019190292
 30
0.0
 40
10.0
100
AcDbArc
 50
261.7798143655086847
 51
120.7222556344911197
  0
LINE
  5
142
100
AcDbEntity
100
AcDbLine
  8
cut
 62
256
370
-1
  6
ByLayer
 10
-40.0472071558197911
 20
-313.3479437610177456
 30
0.0
 11
-42.1652790436130118
 21
-323.9972155807992635
 31
0.0
  0
ARC
  5
143
100
AcDbEntity
  8
cut
 62
256
370
-1
  6
ByLayer
100
AcDbCircle
 10
-35.1161342350707528
 20
-339.8183899198994595
 30
0.0
 40
10.0
100
AcDbArc
 50
239.2798143655087415
 51
98.2222540660087589
  0
ARC
  5
144
100
AcDbEntity
  8
cut
 62
256
370
-1
  6
ByLayer
100
AcDbCircle
 10
-37.2613350216851984
 20
-324.9725786054206083
 30
0.0
 40
5.0
100
AcDbArc
 50
168.7510349999999448
 51
278.2222587714558699
  0
ARC
  5
145
100
AcDbEntity
  8
cut
 62
256
370
-1
  6
ByLayer
100
AcDbCircle
 10
-42.7788214923121259
 20
-352.7134751851356214
 30
0.0
 40
5.0
100
AcDbArc
 50
59.2798143655087344
 51
168.7510350000000585
  0
LINE
  5
146
100
AcDbEntity
100
AcDbLine
  8
cut
 62
256
370
-1
  6
ByLayer
 10
-47.6827655142399465
 20
-351.7381121605143335
 30
0.0
 11
-49.8008374020331601
 21
-362.3873839802957946
 31
0.0
  0
ARC
  5
147
100
AcDbEntity
  8
cut
 62
256
370
-1
  6
ByLayer
100
AcDbCircle
 10
8.7209440752471039
 20
-68.1507426646271313
 30
0.0
 40
300.0
100
AcDbArc
 50
258.7510350000000017
 51
281.2510349999999448
  0
ARC
  5
148
100
AcDbEntity
  8
cut
 62
256
370
-1
  6
ByLayer
100
AcDbCircle
 10
70.038807942386569
 20
-350.7605340092000006
 30
0.0
 40
5.0
100
AcDbArc
 50
81.7798143655087557
 51
191.2510350000000869
  0
LINE
  5
149
100
AcDbEntity
100
AcDbLine
  8
cut
 62
256
370
-1
  6
ByLayer
 10
65.1348991618823447
 20
-351.736074204421584
 30
0.0
 11
67.2533557885454627
 21
-362.3852694948836302
 31
0.0
  0
ARC
  5
14A
100
AcDbEntity
  8
cut
 62
256
370
-1
  6
ByLayer
100
AcDbCircle
 10
64.5203192434964592
 20
-323.0198367850813383
 30
0.0
 40
5.0
100
AcDbArc
 50
191.2510349999999733
 51
300.7222556344913755
  0
ARC
  5
14B
100
AcDbEntity
  8
cut
 62
256
370
-1
  6
ByLayer
100
AcDbCircle
 10
8.7209440752471039
 20
-68.1507426646271313
 30
0.0
 40
250.0
100
AcDbArc
 50
258.7510350000000017
 51
281.2510349999999448
  0
CIRCLE
  5
14C
100
AcDbEntity
100
AcDbCircle
  8
cut
 62
256
370
-1
  6
ByLayer
 10
-0.3423682186446726
 20
-377.5553583852372981
 30
0.0
 40
2.5
  0
CIRCLE
  5
14D
100
AcDbEntity
100
AcDbCircle
  8
cut
 62
256
370
-1
  6
ByLayer
 10
11.660927892232003
 20
-377.1347688050730085
 30
0.0
 40
2.5
  0
CIRCLE
  5
14E
100
AcDbEntity
100
AcDbCircle
  8
cut
 62
256
370
-1
  6
ByLayer
 10
23.6494588441339886
 20
-376.7383360650098894
 30
0.0
 40
2.5
  0
CIRCLE
  5
14F
100
AcDbEntity
100
AcDbCircle
  8
cut
 62
256
370
-1
  6
ByLayer
 10
35.660463603297984
 20
-376.2805659288528091
 30
0.0
 40
2.5
  0
CIRCLE
  5
150
100
AcDbEntity
100
AcDbCircle
  8
cut
 62
256
370
-1
  6
ByLayer
 10
0.9767996461267359
 20
-415.5479404225259827
 30
0.0
 40
2.5
  0
CIRCLE
  5
151
100
AcDbEntity
100
AcDbCircle
  8
cut
 62
256
370
-1
  6
ByLayer
 10
12.9650320668936629
 20
-415.1002348598693175
 30
0.0
 40
2.5
  0
CIRCLE
  5
152
100
AcDbEntity
100
AcDbCircle
  8
cut
 62
256
370
-1
  6
ByLayer
 10
24.9715079646120444
 20
-414.7015574954870658
 30
0.0
 40
2.5
  0
CIRCLE
  5
153
100
AcDbEntity
100
AcDbCircle
  8
cut
 62
256
370
-1
  6
ByLayer
 10
36.9940721769075793
 20
-414.2805705946606736
 30
0.0
 40
2.5
  0
CIRCLE
  5
154
100
AcDbEntity
100
AcDbCircle
  8
cut
 62
256
370
-1
  6
ByLayer
 10
28.302649012304002
 20
-395.4306144629746314
 30
0.0
 40
3.0
  0
CIRCLE
  5
155
100
AcDbEntity
100
AcDbCircle
  8
cut
 62
256
370
-1
  6
ByLayer
 10
-4.8396538281532955
 20
-395.8226016940546401
 30
0.0
 40
11.0
  0
CIRCLE
  5
156
100
AcDbEntity
100
AcDbCircle
  8
cut
 62
256
370
-1
  6
ByLayer
 10
5.5366368898426472
 20
-386.4229958014848307
 30
0.0
 40
1.6000000000000001
  0
CIRCLE
  5
157
100
AcDbEntity
100
AcDbCircle
  8
cut
 62
256
370
-1
  6
ByLayer
 10
-15.2159445461492311
 20
-405.2222075866243358
 30
0.0
 40
1.6000000000000001
  0
MTEXT
  5
158
100
AcDbEntity
100
AcDbMText
  8
engrave
 62
256
370
-1
  6
ByLayer
 10
35.1148972087310085
 20
-394.8785634900813761
 30
0.0
 40
4.0
 41
100.0
 71
4
 72
0
  1
P/N: 16CCMA01\PT/N: ____
  7
standard
 50
9.7500000000000036
 73
1
 44
1.0
  0
LINE
  5
159
100
AcDbEntity
100
AcDbLine
  8
cut
 62
256
370
-1
  6
ByLayer
 10
57.4979543363291867
 20
-366.3460816898307826
 30
0.0
 11
59.6164109629922905
 21
-376.9952769802928287
 31
0.0
  0
ARC
  5
15A
100
AcDbEntity
  8
cut
 62
256
370
-1
  6
ByLayer
100
AcDbCircle
 10
72.1834728734460214
 20
-388.9145452019088225
 30
0.0
 40
10.0
100
AcDbArc
 50
261.7798143655086847
 51
120.7222556344911197
  0
LINE
  5
15B
100
AcDbEntity
100
AcDbLine
  8
cut
 62
256
370
-1
  6
ByLayer
 10
-40.0472066558197071
 20
-366.3478437610075389
 30
0.0
 11
-42.1652785436129278
 21
-376.9971155807890568
 31
0.0
  0
ARC
  5
15C
100
AcDbEntity
  8
cut
 62
256
370
-1
  6
ByLayer
100
AcDbCircle
 10
-35.1161337350706688
 20
-392.8182899198892528
 30
0.0
 40
10.0
100
AcDbArc
 50
239.2798143655087415
 51
98.2222540660087589
  0
ARC
  5
15D
100
AcDbEntity
  8
cut
 62
256
370
-1
  6
ByLayer
100
AcDbCircle
 10
-37.2613345216851144
 20
-377.9724786054104015
 30
0.0
 40
5.0
100
AcDbArc
 50
168.7510349999999448
 51
278.2222587714558699
  0
ARC
  5
15E
100
AcDbEntity
  8
cut
 62
256
370
-1
  6
ByLayer
100
AcDbCircle
 10
-42.7788209923120419
 20
-405.7133751851254146
 30
0.0
 40
5.0
100
AcDbArc
 50
59.2798143655087344
 51
168.7510350000000585
  0
LINE
  5
15F
100
AcDbEntity
100
AcDbLine
  8
cut
 62
256
370
-1
  6
ByLayer
 10
-47.6827650142398625
 20
-404.7380121605041268
 30
0.0
 11
-49.8008369020330761
 21
-415.3872839802855879
 31
0.0
  0
ARC
  5
160
100
AcDbEntity
  8
cut
 62
256
370
-1
  6
ByLayer
100
AcDbCircle
 10
8.7209445752471879
 20
-121.1506426646169245
 30
0.0
 40
300.0
100
AcDbArc
 50
258.7510350000000017
 51
281.2510349999999448
  0
ARC
  5
161
100
AcDbEntity
  8
cut
 62
256
370
-1
  6
ByLayer
100
AcDbCircle
 10
70.038808442386653
 20
-403.7604340091897939
 30
0.0
 40
5.0
100
AcDbArc
 50
81.7798143655087557
 51
191.2510350000000869
  0
LINE
  5
162
100
AcDbEntity
100
AcDbLine
  8
cut
 62
256
370
-1
  6
ByLayer
 10
65.1348996618824287
 20
-404.7359742044113773
 30
0.0
 11
67.2533562885455467
 21
-415.3851694948734234
 31
0.0
  0
ARC
  5
163
100
AcDbEntity
  8
cut
 62
256
370
-1
  6
ByLayer
100
AcDbCircle
 10
64.5203197434965432
 20
-376.0197367850711316
 30
0.0
 40
5.0
100
AcDbArc
 50
191.2510349999999733
 51
300.7222556344913755
  0
ARC
  5
164
100
AcDbEntity
  8
cut
 62
256
370
-1
  6
ByLayer
100
AcDbCircle
 10
8.7209445752471879
 20
-121.1506426646169245
 30
0.0
 40
250.0
100
AcDbArc
 50
258.7510350000000017
 51
281.2510349999999448
  0
CIRCLE
  5
165
100
AcDbEntity
100
AcDbCircle
  8
cut
 62
256
370
-1
  6
ByLayer
 10
6.6733335369832147
 20
-511.8982920832600598
 30
0.0
 40
2.5
  0
CIRCLE
  5
166
100
AcDbEntity
100
AcDbCircle
  8
cut
 62
256
370
-1
  6
ByLayer
 10
18.5195120087451528
 20
-513.8792183149744233
 30
0.0
 40
2.5
  0
CIRCLE
  5
167
100
AcDbEntity
100
AcDbCircle
  8
cut
 62
256
370
-1
  6
ByLayer
 10
30.3464056371471145
 20
-515.880872731843283
 30
0.0
 40
2.5
  0
CIRCLE
  5
168
100
AcDbEntity
100
AcDbCircle
  8
cut
 62
256
370
-1
  6
ByLayer
 10
42.207550614453794
 20
-517.8269016754949234
 30
0.0
 40
2.5
  0
CIRCLE
  5
169
100
AcDbEntity
100
AcDbCircle
  8
cut
 62
256
370
-1
  6
ByLayer
 10
0.3915161132644656
 20
-549.3911615862817825
 30
0.0
 40
2.5
  0
CIRCLE
  5
16A
100
AcDbEntity
100
AcDbCircle
  8
cut
 62
256
370
-1
  6
ByLayer
 10
12.2283393603642949
 20
-551.3425129800799596
 30
0.0
 40
2.5
  0
CIRCLE
  5
16B
100
AcDbEntity
100
AcDbCircle
  8
cut
 62
256
370
-1
  6
ByLayer
 10
24.0732651906089075
 20
-553.3455454809064804
 30
0.0
 40
2.5
  0
CIRCLE
  5
16C
100
AcDbEntity
100
AcDbCircle
  8
cut
 62
256
370
-1
  6
ByLayer
 10
35.9384041639620477
 20
-555.3299238098684327
 30
0.0
 40
2.5
  0
CIRCLE
  5
16D
100
AcDbEntity
100
AcDbCircle
  8
cut
 62
256
370
-1
  6
ByLayer
 10
31.1795407044822213
 20
-535.125595031937678
 30
0.0
 40
3.0
  0
CIRCLE
  5
16E
100
AcDbEntity
100
AcDbCircle
  8
cut
 62
256
370
-1
  6
ByLayer
 10
-1.3755703014853111
 20
-528.9022005444378465
 30
0.0
 40
11.0
  0
CIRCLE
  5
16F
100
AcDbEntity
100
AcDbCircle
  8
cut
 62
256
370
-1
  6
ByLayer
 10
10.6663933265440818
 20
-521.7599941639682584
 30
0.0
 40
1.6000000000000001
  0
CIRCLE
  5
170
100
AcDbEntity
100
AcDbCircle
  8
cut
 62
256
370
-1
  6
ByLayer
 10
-13.4175339295146649
 20
-536.0444069249070935
 30
0.0
 40
1.6000000000000001
  0
MTEXT
  5
171
100
AcDbEntity
100
AcDbMText
  8
engrave
 62
256
370
-1
  6
ByLayer
 10
37.9650922683285046
 20
-535.9427704970485138
 30
0.0
 40
4.0
 41
100.0
 71
4
 72
0
  1
P/N: 16CCMA01\PT/N: ____
  7
standard
 50
358.25
 73
1
 44
1.0
  0
LINE
  5
172
100
AcDbEntity
100
AcDbLine
  8
cut
 62
256
370
-1
  6
ByLayer
 10
-29.9999995000000581
 20
-492.999899999989907
 30
0.0
 11
-34.1986737947686095
 21
-503.0131089251996741
 31
0.0
  0
ARC
  5
173
100
AcDbEntity
  8
cut
 62
256
370
-1
  6
ByLayer
100
AcDbCircle
 10
-30.4452774984691672
 20
-519.9220419560839446
 30
0.0
 40
10.0
100
AcDbArc
 50
227.7798143655087415
 51
86.7222540660087731
  0
ARC
  5
174
100
AcDbEntity
  8
cut
 62
256
370
-1
  6
ByLayer
100
AcDbCircle
 10
-29.5876340091295873
 20
-504.9465804391492156
 30
0.0
 40
5.0
100
AcDbArc
 50
157.2510349999999733
 51
266.7222587714558699
  0
ARC
  5
175
100
AcDbEntity
  8
cut
 62
256
370
-1
  6
ByLayer
100
AcDbCircle
 10
-40.5250005590869762
 20
-531.0305604451197041
 30
0.0
 40
5.0
100
AcDbArc
 50
47.7798143655087415
 51
157.2510350000000585
  0
LINE
  5
176
100
AcDbEntity
100
AcDbLine
  8
cut
 62
256
370
-1
  6
ByLayer
 10
-45.1360403447260268
 20
-529.0970889311703331
 30
0.0
 11
-49.334714639494571
 21
-539.1102978563801571
 31
0.0
  0
ARC
  5
177
100
AcDbEntity
  8
cut
 62
256
370
-1
  6
ByLayer
100
AcDbCircle
 10
66.6735761974725847
 20
-262.447910718038429
 30
0.0
 40
300.0
100
AcDbArc
 50
247.2510349999999733
 51
269.7510349999999448
  0
ARC
  5
178
100
AcDbEntity
  8
cut
 62
256
370
-1
  6
ByLayer
100
AcDbCircle
 10
66.6735761974725847
 20
-262.447910718038429
 30
0.0
 40
250.0
100
AcDbArc
 50
247.2510349999999733
 51
269.7510349999999448
  0
CIRCLE
  5
179
100
AcDbEntity
100
AcDbCircle
  8
cut
 62
256
370
-1
  6
ByLayer
 10
106.7011082033593397
 20
-515.8711112425559122
 30
0.0
 40
2.5
  0
CIRCLE
  5
17A
100
AcDbEntity
100
AcDbCircle
  8
cut
 62
256
370
-1
  6
ByLayer
 10
118.4036176815105392
 20
-513.1679122054681557
 30
0.0
 40
2.5
  0
CIRCLE
  5
17B
100
AcDbEntity
100
AcDbCircle
  8
cut
 62
256
370
-1
  6
ByLayer
 10
130.0962426206353939
 20
-510.4912435044406038
 30
0.0
 40
2.5
  0
CIRCLE
  5
17C
100
AcDbEntity
100
AcDbCircle
  8
cut
 62
256
370
-1
  6
ByLayer
 10
141.7992247329564748
 20
-507.7500761434593528
 30
0.0
 40
2.5
  0
CIRCLE
  5
17D
100
AcDbEntity
100
AcDbCircle
  8
cut
 62
256
370
-1
  6
ByLayer
 10
115.2453656492458975
 20
-552.9139534447139113
 30
0.0
 40
2.5
  0
CIRCLE
  5
17E
100
AcDbEntity
100
AcDbCircle
  8
cut
 62
256
370
-1
  6
ByLayer
 10
126.9279142263242619
 20
-550.1870109096823853
 30
0.0
 40
2.5
  0
CIRCLE
  5
17F
100
AcDbEntity
100
AcDbCircle
  8
cut
 62
256
370
-1
  6
ByLayer
 10
138.6377261175564968
 20
-547.5047147673230938
 30
0.0
 40
2.5
  0
CIRCLE
  5
180
100
AcDbEntity
100
AcDbCircle
  8
cut
 62
256
370
-1
  6
ByLayer
 10
150.3590738754774065
 20
-544.7974491823983954
 30
0.0
 40
2.5
  0
CIRCLE
  5
181
100
AcDbEntity
100
AcDbCircle
  8
cut
 62
256
370
-1
  6
ByLayer
 10
138.2305954418769716
 20
-527.9522215591699705
 30
0.0
 40
3.0
  0
CIRCLE
  5
182
100
AcDbEntity
100
AcDbCircle
  8
cut
 62
256
370
-1
  6
ByLayer
 10
105.7720047413919389
 20
-534.6608563902152582
 30
0.0
 40
11.0
  0
CIRCLE
  5
183
100
AcDbEntity
100
AcDbCircle
  8
cut
 62
256
370
-1
  6
ByLayer
 10
114.1641244162357935
 20
-523.454058124738026
 30
0.0
 40
1.6000000000000001
  0
CIRCLE
  5
184
100
AcDbEntity
100
AcDbCircle
  8
cut
 62
256
370
-1
  6
ByLayer
 10
97.3798850665482263
 20
-545.8676546556921494
 30
0.0
 40
1.6000000000000001
  0
LINE
  5
185
100
AcDbEntity
100
AcDbLine
  8
cut
 62
256
370
-1
  6
ByLayer
 10
161.3399102975546384
 20
-493.8313266925886751
 30
0.0
 11
165.4514071641836495
 21
-503.8806456908666291
 31
0.0
  0
ARC
  5
186
100
AcDbEntity
  8
cut
 62
256
370
-1
  6
ByLayer
100
AcDbCircle
 10
180.06188034654474
 20
-513.1830149260403005
 30
0.0
 40
10.0
100
AcDbArc
 50
272.7798143655086847
 51
131.7222556344911197
  0
ARC
  5
187
100
AcDbEntity
  8
cut
 62
256
370
-1
  6
ByLayer
100
AcDbCircle
 10
66.6735761974725847
 20
-262.447910718038429
 30
0.0
 40
300.0
100
AcDbArc
 50
269.7510350000000017
 51
292.2510349999999448
  0
ARC
  5
188
100
AcDbEntity
  8
cut
 62
256
370
-1
  6
ByLayer
100
AcDbCircle
 10
180.7893485704327077
 20
-528.1653642072189996
 30
0.0
 40
5.0
100
AcDbArc
 50
92.7798143655087557
 51
202.2510350000000869
  0
LINE
  5
189
100
AcDbEntity
100
AcDbLine
  8
cut
 62
256
370
-1
  6
ByLayer
 10
176.1616802509419131
 20
-530.0586908892206566
 30
0.0
 11
180.2731771175709241
 21
-540.1080098874984969
 31
0.0
  0
ARC
  5
18A
100
AcDbEntity
  8
cut
 62
256
370
-1
  6
ByLayer
100
AcDbCircle
 10
170.0790754836746146
 20
-501.9873190088649153
 30
0.0
 40
5.0
100
AcDbArc
 50
202.2510349999999733
 51
311.7222556344913755
  0
ARC
  5
18B
100
AcDbEntity
  8
cut
 62
256
370
-1
  6
ByLayer
100
AcDbCircle
 10
66.6735761974725847
 20
-262.447910718038429
 30
0.0
 40
250.0
100
AcDbArc
 50
269.7510350000000017
 51
292.2510349999999448
  0
CIRCLE
  5
18C
100
AcDbEntity
100
AcDbCircle
  8
cut
 62
256
370
-1
  6
ByLayer
 10
6.6733330369832302
 20
-448.8983920832701529
 30
0.0
 40
2.5
  0
CIRCLE
  5
18D
100
AcDbEntity
100
AcDbCircle
  8
cut
 62
256
370
-1
  6
ByLayer
 10
18.519511508745147
 20
-450.8793183149845163
 30
0.0
 40
2.5
  0
CIRCLE
  5
18E
100
AcDbEntity
100
AcDbCircle
  8
cut
 62
256
370
-1
  6
ByLayer
 10
30.3464051371470944
 20
-452.8809727318534897
 30
0.0
 40
2.5
  0
CIRCLE
  5
18F
100
AcDbEntity
100
AcDbCircle
  8
cut
 62
256
370
-1
  6
ByLayer
 10
42.2075501144537952
 20
-454.8270016755051302
 30
0.0
 40
2.5
  0
CIRCLE
  5
190
100
AcDbEntity
100
AcDbCircle
  8
cut
 62
256
370
-1
  6
ByLayer
 10
0.391515613264481
 20
-486.3912615862919324
 30
0.0
 40
2.5
  0
CIRCLE
  5
191
100
AcDbEntity
100
AcDbCircle
  8
cut
 62
256
370
-1
  6
ByLayer
 10
12.2283388603643246
 20
-488.3426129800900526
 30
0.0
 40
2.5
  0
CIRCLE
  5
192
100
AcDbEntity
100
AcDbCircle
  8
cut
 62
256
370
-1
  6
ByLayer
 10
24.0732646906088874
 20
-490.345645480916744
 30
0.0
 40
2.5
  0
CIRCLE
  5
193
100
AcDbEntity
100
AcDbCircle
  8
cut
 62
256
370
-1
  6
ByLayer
 10
35.9384036639620206
 20
-492.3300238098786963
 30
0.0
 40
2.5
  0
CIRCLE
  5
194
100
AcDbEntity
100
AcDbCircle
  8
cut
 62
256
370
-1
  6
ByLayer
 10
31.1795402044822367
 20
-472.1256950319478847
 30
0.0
 40
3.0
  0
CIRCLE
  5
195
100
AcDbEntity
100
AcDbCircle
  8
cut
 62
256
370
-1
  6
ByLayer
 10
-1.3755708014853205
 20
-465.9023005444478827
 30
0.0
 40
11.0
  0
CIRCLE
  5
196
100
AcDbEntity
100
AcDbCircle
  8
cut
 62
256
370
-1
  6
ByLayer
 10
10.6663928265440759
 20
-458.7600941639784082
 30
0.0
 40
1.6000000000000001
  0
CIRCLE
  5
197
100
AcDbEntity
100
AcDbCircle
  8
cut
 62
256
370
-1
  6
ByLayer
 10
-13.4175344295146566
 20
-473.0445069249173002
 30
0.0
 40
1.6000000000000001
  0
MTEXT
  5
198
100
AcDbEntity
100
AcDbMText
  8
engrave
 62
256
370
-1
  6
ByLayer
 10
37.9650917683284774
 20
-472.9428704970587205
 30
0.0
 40
4.0
 41
100.0
 71
4
 72
0
  1
P/N: 16CCMA01\PT/N: ____
  7
standard
 50
358.25
 73
1
 44
1.0
  0
LINE
  5
199
100
AcDbEntity
100
AcDbLine
  8
cut
 62
256
370
-1
  6
ByLayer
 10
-30.0000000000000711
 20
-430.0000000000000568
 30
0.0
 11
-34.1986742947686437
 21
-440.0132089252099377
 31
0.0
  0
ARC
  5
19A
100
AcDbEntity
  8
cut
 62
256
370
-1
  6
ByLayer
100
AcDbCircle
 10
-30.4452779984691801
 20
-456.9221419560940944
 30
0.0
 40
10.0
100
AcDbArc
 50
227.7798143655087415
 51
86.7222540660087731
  0
ARC
  5
19B
100
AcDbEntity
  8
cut
 62
256
370
-1
  6
ByLayer
100
AcDbCircle
 10
-29.5876345091296074
 20
-441.9466804391593655
 30
0.0
 40
5.0
100
AcDbArc
 50
157.2510349999999733
 51
266.7222587714558699
  0
ARC
  5
19C
100
AcDbEntity
  8
cut
 62
256
370
-1
  6
ByLayer
100
AcDbCircle
 10
-40.5250010590869891
 20
-468.030660445129854
 30
0.0
 40
5.0
100
AcDbArc
 50
47.7798143655087415
 51
157.2510350000000585
  0
LINE
  5
19D
100
AcDbEntity
100
AcDbLine
  8
cut
 62
256
370
-1
  6
ByLayer
 10
-45.1360408447260397
 20
-466.097188931180483
 30
0.0
 11
-49.3347151394945911
 21
-476.1103978563903638
 31
0.0
  0
ARC
  5
19E
100
AcDbEntity
  8
cut
 62
256
370
-1
  6
ByLayer
100
AcDbCircle
 10
66.6735756974725149
 20
-199.4480107180485788
 30
0.0
 40
300.0
100
AcDbArc
 50
247.2510349999999733
 51
269.7510349999999448
  0
ARC
  5
19F
100
AcDbEntity
  8
cut
 62
256
370
-1
  6
ByLayer
100
AcDbCircle
 10
66.6735756974725149
 20
-199.4480107180485788
 30
0.0
 40
250.0
100
AcDbArc
 50
247.2510349999999733
 51
269.7510349999999448
  0
CIRCLE
  5
1A0
100
AcDbEntity
100
AcDbCircle
  8
cut
 62
256
370
-1
  6
ByLayer
 10
106.7011077033593409
 20
-452.8712112425661189
 30
0.0
 40
2.5
  0
CIRCLE
  5
1A1
100
AcDbEntity
100
AcDbCircle
  8
cut
 62
256
370
-1
  6
ByLayer
 10
118.4036171815105405
 20
-450.1680122054784761
 30
0.0
 40
2.5
  0
CIRCLE
  5
1A2
100
AcDbEntity
100
AcDbCircle
  8
cut
 62
256
370
-1
  6
ByLayer
 10
130.0962421206353952
 20
-447.4913435044507537
 30
0.0
 40
2.5
  0
CIRCLE
  5
1A3
100
AcDbEntity
100
AcDbCircle
  8
cut
 62
256
370
-1
  6
ByLayer
 10
141.799224232956476
 20
-444.7501761434695027
 30
0.0
 40
2.5
  0
CIRCLE
  5
1A4
100
AcDbEntity
100
AcDbCircle
  8
cut
 62
256
370
-1
  6
ByLayer
 10
115.2453651492458704
 20
-489.9140534447239475
 30
0.0
 40
2.5
  0
CIRCLE
  5
1A5
100
AcDbEntity
100
AcDbCircle
  8
cut
 62
256
370
-1
  6
ByLayer
 10
126.9279137263242916
 20
-487.1871109096924215
 30
0.0
 40
2.5
  0
CIRCLE
  5
1A6
100
AcDbEntity
100
AcDbCircle
  8
cut
 62
256
370
-1
  6
ByLayer
 10
138.6377256175565549
 20
-484.5048147673332437
 30
0.0
 40
2.5
  0
CIRCLE
  5
1A7
100
AcDbEntity
100
AcDbCircle
  8
cut
 62
256
370
-1
  6
ByLayer
 10
150.3590733754774078
 20
-481.7975491824086021
 30
0.0
 40
2.5
  0
CIRCLE
  5
1A8
100
AcDbEntity
100
AcDbCircle
  8
cut
 62
256
370
-1
  6
ByLayer
 10
138.2305949418769728
 20
-464.9523215591799499
 30
0.0
 40
3.0
  0
CIRCLE
  5
1A9
100
AcDbEntity
100
AcDbCircle
  8
cut
 62
256
370
-1
  6
ByLayer
 10
105.7720042413919401
 20
-471.6609563902253512
 30
0.0
 40
11.0
  0
CIRCLE
  5
1AA
100
AcDbEntity
100
AcDbCircle
  8
cut
 62
256
370
-1
  6
ByLayer
 10
114.1641239162357664
 20
-460.4541581247481759
 30
0.0
 40
1.6000000000000001
  0
CIRCLE
  5
1AB
100
AcDbEntity
100
AcDbCircle
  8
cut
 62
256
370
-1
  6
ByLayer
 10
97.3798845665482418
 20
-482.8677546557023561
 30
0.0
 40
1.6000000000000001
  0
LINE
  5
1AC
100
AcDbEntity
100
AcDbLine
  8
cut
 62
256
370
-1
  6
ByLayer
 10
161.339909797554526
 20
-430.8314266925984839
 30
0.0
 11
165.4514066641836507
 21
-440.8807456908769495
 31
0.0
  0
ARC
  5
1AD
100
AcDbEntity
  8
cut
 62
256
370
-1
  6
ByLayer
100
AcDbCircle
 10
180.0618798465446844
 20
-450.1831149260504503
 30
0.0
 40
10.0
100
AcDbArc
 50
272.7798143655086847
 51
131.7222556344911197
  0
ARC
  5
1AE
100
AcDbEntity
  8
cut
 62
256
370
-1
  6
ByLayer
100
AcDbCircle
 10
66.6735756974725149
 20
-199.4480107180485788
 30
0.0
 40
300.0
100
AcDbArc
 50
269.7510350000000017
 51
292.2510349999999448
  0
ARC
  5
1AF
100
AcDbEntity
  8
cut
 62
256
370
-1
  6
ByLayer
100
AcDbCircle
 10
180.7893480704327089
 20
-465.1654642072292063
 30
0.0
 40
5.0
100
AcDbArc
 50
92.7798143655087557
 51
202.2510350000000869
  0
LINE
  5
1B0
100
AcDbEntity
100
AcDbLine
  8
cut
 62
256
370
-1
  6
ByLayer
 10
176.1616797509419143
 20
-467.0587908892305791
 30
0.0
 11
180.2731766175709254
 21
-477.1081098875086468
 31
0.0
  0
ARC
  5
1B1
100
AcDbEntity
  8
cut
 62
256
370
-1
  6
ByLayer
100
AcDbCircle
 10
170.0790749836746159
 20
-438.9874190088750652
 30
0.0
 40
5.0
100
AcDbArc
 50
202.2510349999999733
 51
311.7222556344913755
  0
ARC
  5
1B2
100
AcDbEntity
  8
cut
 62
256
370
-1
  6
ByLayer
100
AcDbCircle
 10
66.6735756974725149
 20
-199.4480107180485788
 30
0.0
 40
250.0
100
AcDbArc
 50
269.7510350000000017
 51
292.2510349999999448
  0
ENDSEC
  0
SECTION
  2
OBJECTS
  0
DICTIONARY
  5
C
100
AcDbDictionary
280
0
281
1
  3
ACAD_GROUP
350
D
  3
ACAD_LAYOUT
350
1A
  3
ACAD_MLINESTYLE
350
17
  3
ACAD_PLOTSETTINGS
350
19
  3
ACAD_PLOTSTYLENAME
350
E
  3
AcDbVariableDictionary
350
1B3
  0
DICTIONARY
  5
D
100
AcDbDictionary
280
0
281
1
  0
ACDBDICTIONARYWDFLT
  5
E
100
AcDbDictionary
281
1
  3
Normal
350
F
100
AcDbDictionaryWithDefault
340
F
  0
ACDBPLACEHOLDER
  5
F
  0
DICTIONARY
  5
17
100
AcDbDictionary
280
0
281
1
  3
Standard
350
18
  0
MLINESTYLE
  5
18
100
AcDbMlineStyle
  2
STANDARD
 70
0
  3

 62
256
 51
90.0
 52
90.0
 71
2
 49
0.5
 62
256
  6
BYLAYER
 49
-0.5
 62
256
  6
BYLAYER
  0
DICTIONARY
  5
19
100
AcDbDictionary
280
0
281
1
  0
DICTIONARY
  5
1A
100
AcDbDictionary
281
1
  3
Layout1
350
1E
  3
Layout2
350
26
  3
Model
350
22
  0
LAYOUT
  5
1E
100
AcDbPlotSettings
  1

  2
C:\Program Files\AutoCAD 2002\plotters\DWF ePlot (optimized for plotting).pc3
  4

  6

 40
0.0
 41
0.0
 42
0.0
 43
0.0
 44
0.0
 45
0.0
 46
0.0
 47
0.0
 48
0.0
 49
0.0
140
0.0
141
0.0
142
1.0
143
1.0
 70
688
 72
0
 73
0
 74
5
  7

 75
16
147
1.0
148
0.0
149
0.0
100
AcDbLayout
  1
Layout1
 70
1
 71
1
 10
0.0
 20
0.0
 11
420.0
 21
297.0
 12
0.0
 22
0.0
 32
0.0
 14
100000000000000000000.0
 24
100000000000000000000.0
 34
100000000000000000000.0
 15
-100000000000000000000.0
 25
-100000000000000000000.0
 35
-100000000000000000000.0
146
0.0
 13
0.0
 23
0.0
 33
0.0
 16
1.0
 26
0.0
 36
0.0
 17
0.0
 27
1.0
 37
0.0
 76
0
330
1B
  0
LAYOUT
  5
22
100
AcDbPlotSettings
  1

  2
C:\Program Files\AutoCAD 2002\plotters\DWF ePlot (optimized for plotting).pc3
  4

  6

 40
0.0
 41
0.0
 42
0.0
 43
0.0
 44
0.0
 45
0.0
 46
0.0
 47
0.0
 48
0.0
 49
0.0
140
0.0
141
0.0
142
1.0
143
1.0
 70
1712
 72
0
 73
0
 74
0
  7

 75
0
147
1.0
148
0.0
149
0.0
100
AcDbLayout
  1
Model
 70
1
 71
0
 10
0.0
 20
0.0
 11
12.0
 21
9.0
 12
0.0
 22
0.0
 32
0.0
 14
0.0
 24
0.0
 34
0.0
 15
0.0
 25
0.0
 35
0.0
146
0.0
 13
0.0
 23
0.0
 33
0.0
 16
1.0
 26
0.0
 36
0.0
 17
0.0
 27
1.0
 37
0.0
 76
0
330
1F
  0
LAYOUT
  5
26
100
AcDbPlotSettings
  1

  2
C:\Program Files\AutoCAD 2002\plotters\DWF ePlot (optimized for plotting).pc3
  4

  6

 40
0.0
 41
0.0
 42
0.0
 43
0.0
 44
0.0
 45
0.0
 46
0.0
 47
0.0
 48
0.0
 49
0.0
140
0.0
141
0.0
142
1.0
143
1.0
 70
688
 72
0
 73
0
 74
5
  7

 75
16
147
1.0
148
0.0
149
0.0
100
AcDbLayout
  1
Layout2
 70
1
 71
2
 10
0.0
 20
0.0
 11
12.0
 21
9.0
 12
0.0
 22
0.0
 32
0.0
 14
0.0
 24
0.0
 34
0.0
 15
0.0
 25
0.0
 35
0.0
146
0.0
 13
0.0
 23
0.0
 33
0.0
 16
1.0
 26
0.0
 36
0.0
 17
0.0
 27
1.0
 37
0.0
 76
0
330
23
  0
DICTIONARY
  5
1B3
100
AcDbDictionary
281
1
  3
DIMASSOC
350
1B5
  3
HIDETEXT
350
1B4
  0
DICTIONARYVAR
  5
1B4
100
DictionaryVariables
280
0
  1
2
  0
DICTIONARYVAR
  5
1B5
100
DictionaryVariables
280
0
  1
1
  0
ENDSEC
  0
EOF
