999
dxflib 2.2.0.0
  0
SECTION
  2
HEADER
  9
$ACADVER
  1
AC1015
  9
$HANDSEED
  5
FFFF
  9
$DIMASZ
 40
2.5
  9
$PLIMMIN
 10
0.0
 20
0.0
  9
$DIMEXE
 40
1.25
  9
$DIMGAP
 40
0.625
  9
$PLIMMAX
 10
210.0
 20
297.0
  9
$INSUNITS
 70
4
  9
$DIMSTYLE
  2
Standard
  9
$DIMEXO
 40
0.625
  9
$DIMTXT
 40
2.5
  0
ENDSEC
  0
SECTION
  2
TABLES
  0
TABLE
  2
VPORT
  5
8
100
AcDbSymbolTable
 70
1
  0
VPORT
  5
30
100
AcDbSymbolTableRecord
100
AcDbViewportTableRecord
  2
*Active
 70
0
 10
0.0
 20
0.0
 11
1.0
 21
1.0
 12
286.3055555555554861
 22
148.5
 13
0.0
 23
0.0
 14
10.0
 24
10.0
 15
10.0
 25
10.0
 16
0.0
 26
0.0
 36
1.0
 17
0.0
 27
0.0
 37
0.0
 40
297.0
 41
1.92798353909465
 42
50.0
 43
0.0
 44
0.0
 50
0.0
 51
0.0
 71
0
 72
100
 73
1
 74
3
 75
1
 76
1
 77
0
 78
0
281
0
 65
1
110
0.0
120
0.0
130
0.0
111
1.0
121
0.0
131
0.0
112
0.0
122
1.0
132
0.0
 79
0
146
0.0
  0
ENDTAB
  0
TABLE
  2
LTYPE
  5
5
100
AcDbSymbolTable
 70
21
  0
LTYPE
  5
14
100
AcDbSymbolTableRecord
100
AcDbLinetypeTableRecord
  2
ByBlock
 70
0
  3

 72
65
 73
0
 40
0.0
  0
LTYPE
  5
15
100
AcDbSymbolTableRecord
100
AcDbLinetypeTableRecord
  2
ByLayer
 70
0
  3

 72
65
 73
0
 40
0.0
  0
LTYPE
  5
16
100
AcDbSymbolTableRecord
100
AcDbLinetypeTableRecord
  2
CONTINUOUS
 70
0
  3
Solid line
 72
65
 73
0
 40
0.0
  0
LTYPE
  5
31
100
AcDbSymbolTableRecord
100
AcDbLinetypeTableRecord
  2
DOT
 70
0
  3
Dot . . . . . . . . . . . . . . . . . . . . . .
 72
65
 73
2
 40
6.3499999999999996
 49
0.0
 74
0
 49
-6.3499999999999996
 74
0
  0
LTYPE
  5
32
100
AcDbSymbolTableRecord
100
AcDbLinetypeTableRecord
  2
DOT2
 70
0
  3
Dot (.5x) .....................................
 72
65
 73
2
 40
3.1749999999999998
 49
0.0
 74
0
 49
-3.1749999999999998
 74
0
  0
LTYPE
  5
33
100
AcDbSymbolTableRecord
100
AcDbLinetypeTableRecord
  2
DOTX2
 70
0
  3
Dot (2x) .  .  .  .  .  .  .  .  .  .  .  .  .
 72
65
 73
2
 40
12.6999999999999993
 49
0.0
 74
0
 49
-12.6999999999999993
 74
0
  0
LTYPE
  5
34
100
AcDbSymbolTableRecord
100
AcDbLinetypeTableRecord
  2
DASHED
 70
0
  3
Dashed __ __ __ __ __ __ __ __ __ __ __ __ __ _
 72
65
 73
2
 40
19.0500000000000007
 49
12.6999999999999993
 74
0
 49
-6.3499999999999996
 74
0
  0
LTYPE
  5
35
100
AcDbSymbolTableRecord
100
AcDbLinetypeTableRecord
  2
DASHED2
 70
0
  3
Dashed (.5x) _ _ _ _ _ _ _ _ _ _ _ _ _ _ _ _ _
 72
65
 73
2
 40
9.5250000000000004
 49
6.3499999999999996
 74
0
 49
-3.1749999999999998
 74
0
  0
LTYPE
  5
36
100
AcDbSymbolTableRecord
100
AcDbLinetypeTableRecord
  2
DASHEDX2
 70
0
  3
Dashed (2x) ____  ____  ____  ____  ____  ___
 72
65
 73
2
 40
38.1000000000000014
 49
25.3999999999999986
 74
0
 49
-12.6999999999999993
 74
0
  0
LTYPE
  5
37
100
AcDbSymbolTableRecord
100
AcDbLinetypeTableRecord
  2
DASHDOT
 70
0
  3
Dash dot __ . __ . __ . __ . __ . __ . __ . __
 72
65
 73
4
 40
25.3999999999999986
 49
12.6999999999999993
 74
0
 49
-6.3499999999999996
 74
0
 49
0.0
 74
0
 49
-6.3499999999999996
 74
0
  0
LTYPE
  5
38
100
AcDbSymbolTableRecord
100
AcDbLinetypeTableRecord
  2
DASHDOT2
 70
0
  3
Dash dot (.5x) _._._._._._._._._._._._._._._.
 72
65
 73
4
 40
12.6999999999999993
 49
6.3499999999999996
 74
0
 49
-3.1749999999999998
 74
0
 49
0.0
 74
0
 49
-3.1749999999999998
 74
0
  0
LTYPE
  5
39
100
AcDbSymbolTableRecord
100
AcDbLinetypeTableRecord
  2
DASHDOTX2
 70
0
  3
Dash dot (2x) ____  .  ____  .  ____  .  ___
 72
65
 73
4
 40
50.7999999999999972
 49
25.3999999999999986
 74
0
 49
-12.6999999999999993
 74
0
 49
0.0
 74
0
 49
-12.6999999999999993
 74
0
  0
LTYPE
  5
3A
100
AcDbSymbolTableRecord
100
AcDbLinetypeTableRecord
  2
DIVIDE
 70
0
  3
Divide ____ . . ____ . . ____ . . ____ . . ____
 72
65
 73
6
 40
31.75
 49
12.6999999999999993
 74
0
 49
-6.3499999999999996
 74
0
 49
0.0
 74
0
 49
-6.3499999999999996
 74
0
 49
0.0
 74
0
 49
-6.3499999999999996
 74
0
  0
LTYPE
  5
3B
100
AcDbSymbolTableRecord
100
AcDbLinetypeTableRecord
  2
DIVIDE2
 70
0
  3
Divide (.5x) __..__..__..__..__..__..__..__.._
 72
65
 73
6
 40
15.875
 49
6.3499999999999996
 74
0
 49
-3.1749999999999998
 74
0
 49
0.0
 74
0
 49
-3.1749999999999998
 74
0
 49
0.0
 74
0
 49
-3.1749999999999998
 74
0
  0
LTYPE
  5
3C
100
AcDbSymbolTableRecord
100
AcDbLinetypeTableRecord
  2
DIVIDEX2
 70
0
  3
Divide (2x) ________  .  .  ________  .  .  _
 72
65
 73
6
 40
63.5
 49
25.3999999999999986
 74
0
 49
-12.6999999999999993
 74
0
 49
0.0
 74
0
 49
-12.6999999999999993
 74
0
 49
0.0
 74
0
 49
-12.6999999999999993
 74
0
  0
LTYPE
  5
3D
100
AcDbSymbolTableRecord
100
AcDbLinetypeTableRecord
  2
CENTER
 70
0
  3
Center ____ _ ____ _ ____ _ ____ _ ____ _ ____
 72
65
 73
4
 40
50.7999999999999972
 49
31.75
 74
0
 49
-6.3499999999999996
 74
0
 49
6.3499999999999996
 74
0
 49
-6.3499999999999996
 74
0
  0
LTYPE
  5
3E
100
AcDbSymbolTableRecord
100
AcDbLinetypeTableRecord
  2
CENTER2
 70
0
  3
Center (.5x) ___ _ ___ _ ___ _ ___ _ ___ _ ___
 72
65
 73
4
 40
28.5749999999999993
 49
19.0500000000000007
 74
0
 49
-3.1749999999999998
 74
0
 49
3.1749999999999998
 74
0
 49
-3.1749999999999998
 74
0
  0
LTYPE
  5
3F
100
AcDbSymbolTableRecord
100
AcDbLinetypeTableRecord
  2
CENTERX2
 70
0
  3
Center (2x) ________  __  ________  __  _____
 72
65
 73
4
 40
101.5999999999999943
 49
63.5
 74
0
 49
-12.6999999999999993
 74
0
 49
12.6999999999999993
 74
0
 49
-12.6999999999999993
 74
0
  0
LTYPE
  5
40
100
AcDbSymbolTableRecord
100
AcDbLinetypeTableRecord
  2
BORDER
 70
0
  3
Border __ __ . __ __ . __ __ . __ __ . __ __ .
 72
65
 73
6
 40
44.4500000000000028
 49
12.6999999999999993
 74
0
 49
-6.3499999999999996
 74
0
 49
12.6999999999999993
 74
0
 49
-6.3499999999999996
 74
0
 49
0.0
 74
0
 49
-6.3499999999999996
 74
0
  0
LTYPE
  5
41
100
AcDbSymbolTableRecord
100
AcDbLinetypeTableRecord
  2
BORDER2
 70
0
  3
Border (.5x) __.__.__.__.__.__.__.__.__.__.__.
 72
65
 73
6
 40
22.2250000000000014
 49
6.3499999999999996
 74
0
 49
-3.1749999999999998
 74
0
 49
6.3499999999999996
 74
0
 49
-3.1749999999999998
 74
0
 49
0.0
 74
0
 49
-3.1749999999999998
 74
0
  0
LTYPE
  5
42
100
AcDbSymbolTableRecord
100
AcDbLinetypeTableRecord
  2
BORDERX2
 70
0
  3
Border (2x) ____  ____  .  ____  ____  .  ___
 72
65
 73
6
 40
88.9000000000000057
 49
25.3999999999999986
 74
0
 49
-12.6999999999999993
 74
0
 49
25.3999999999999986
 74
0
 49
-12.6999999999999993
 74
0
 49
0.0
 74
0
 49
-12.6999999999999993
 74
0
  0
ENDTAB
  0
TABLE
  2
LAYER
  5
2
100
AcDbSymbolTable
 70
4
  0
LAYER
  5
10
100
AcDbSymbolTableRecord
100
AcDbLayerTableRecord
  2
0
 70
0
 62
7
  6
CONTINUOUS
290
1
370
0
390
F
  0
LAYER
  5
43
100
AcDbSymbolTableRecord
100
AcDbLayerTableRecord
  2
frame
 70
0
 62
161
  6
CONTINUOUS
290
1
370
0
390
F
  0
LAYER
  5
44
100
AcDbSymbolTableRecord
100
AcDbLayerTableRecord
  2
cut
 70
0
 62
5
  6
CONTINUOUS
290
1
370
0
390
F
  0
LAYER
  5
45
100
AcDbSymbolTableRecord
100
AcDbLayerTableRecord
  2
engrave
 70
0
 62
1
  6
CONTINUOUS
290
1
370
9
390
F
  0
ENDTAB
  0
TABLE
  2
STYLE
  5
3
100
AcDbSymbolTable
 70
1
  0
STYLE
  5
11
100
AcDbSymbolTableRecord
100
AcDbTextStyleTableRecord
  2
Standard
 70
0
 40
0.0
 41
0.75
 50
0.0
 71
0
 42
2.5
  3
txt
  4

  0
ENDTAB
  0
TABLE
  2
VIEW
  5
6
100
AcDbSymbolTable
 70
0
  0
ENDTAB
  0
TABLE
  2
UCS
  5
7
100
AcDbSymbolTable
 70
0
  0
ENDTAB
  0
TABLE
  2
APPID
  5
9
100
AcDbSymbolTable
 70
1
  0
APPID
  5
12
100
AcDbSymbolTableRecord
100
AcDbRegAppTableRecord
  2
ACAD
 70
0
  0
ENDTAB
  0
TABLE
  2
DIMSTYLE
  5
A
100
AcDbSymbolTable
 70
1
100
AcDbDimStyleTable
 71
0
  0
DIMSTYLE
105
27
100
AcDbSymbolTableRecord
100
AcDbDimStyleTableRecord
  2
Standard
 41
2.5
 42
0.625
 43
3.75
 44
1.25
 70
0
 73
0
 74
0
 77
1
 78
8
140
2.5
141
2.5
143
0.03937007874016
147
0.625
171
3
172
1
271
2
272
2
274
3
278
44
283
0
284
8
340
11
  0
ENDTAB
  0
TABLE
  2
BLOCK_RECORD
  5
1
100
AcDbSymbolTable
 70
1
  0
BLOCK_RECORD
  5
1F
100
AcDbSymbolTableRecord
100
AcDbBlockTableRecord
  2
*Model_Space
340
22
  0
BLOCK_RECORD
  5
1B
100
AcDbSymbolTableRecord
100
AcDbBlockTableRecord
  2
*Paper_Space
340
1E
  0
BLOCK_RECORD
  5
23
100
AcDbSymbolTableRecord
100
AcDbBlockTableRecord
  2
*Paper_Space0
340
26
  0
ENDTAB
  0
ENDSEC
  0
SECTION
  2
BLOCKS
  0
BLOCK
  5
20
100
AcDbEntity
  8
0
100
AcDbBlockBegin
  2
*Model_Space
 70
0
 10
0.0
 20
0.0
 30
0.0
  3
*Model_Space
  1

  0
ENDBLK
  5
21
100
AcDbEntity
  8
0
100
AcDbBlockEnd
  0
BLOCK
  5
1C
100
AcDbEntity
 67
1
  8
0
100
AcDbBlockBegin
  2
*Paper_Space
 70
0
 10
0.0
 20
0.0
 30
0.0
  3
*Paper_Space
  1

  0
ENDBLK
  5
1D
100
AcDbEntity
 67
1
  8
0
100
AcDbBlockEnd
  0
BLOCK
  5
24
100
AcDbEntity
  8
0
100
AcDbBlockBegin
  2
*Paper_Space0
 70
0
 10
0.0
 20
0.0
 30
0.0
  3
*Paper_Space0
  1

  0
ENDBLK
  5
25
100
AcDbEntity
  8
0
100
AcDbBlockEnd
  0
ENDSEC
  0
SECTION
  2
ENTITIES
  0
LINE
  5
46
100
AcDbEntity
100
AcDbLine
  8
frame
 62
256
370
-1
  6
ByLayer
 10
-59.8015151558199918
 20
14.651456238921071
 30
0.0
 11
840.1984848441800295
 21
14.6514562389210568
 31
0.0
  0
LINE
  5
47
100
AcDbEntity
100
AcDbLine
  8
frame
 62
256
370
-1
  6
ByLayer
 10
840.1984848441800295
 20
-585.3485437610788722
 30
0.0
 11
840.1984848441800295
 21
14.6514562389210568
 31
0.0
  0
LINE
  5
48
100
AcDbEntity
100
AcDbLine
  8
frame
 62
256
370
-1
  6
ByLayer
 10
-59.8015151558200699
 20
-585.3485437610788722
 30
0.0
 11
-59.8015151558199918
 21
14.651456238921071
 31
0.0
  0
LINE
  5
49
100
AcDbEntity
100
AcDbLine
  8
frame
 62
256
370
-1
  6
ByLayer
 10
-59.8015151558200699
 20
-585.3485437610788722
 30
0.0
 11
840.1984848441800295
 21
-585.3485437610788722
 31
0.0
  0
CIRCLE
  5
4A
100
AcDbEntity
100
AcDbCircle
  8
cut
 62
256
370
-1
  6
ByLayer
 10
152.1415773567686927
 20
-26.0226789986569997
 30
0.0
 40
2.5
  0
CIRCLE
  5
4B
100
AcDbEntity
100
AcDbCircle
  8
cut
 62
256
370
-1
  6
ByLayer
 10
162.3555062230141175
 20
-32.3418300678757191
 30
0.0
 40
2.5
  0
CIRCLE
  5
4C
100
AcDbEntity
100
AcDbCircle
  8
cut
 62
256
370
-1
  6
ByLayer
 10
172.5437372723223461
 20
-38.6728632685482125
 30
0.0
 40
2.5
  0
CIRCLE
  5
4D
100
AcDbEntity
100
AcDbCircle
  8
cut
 62
256
370
-1
  6
ByLayer
 10
182.7847325366041105
 20
-44.9653830197430011
 30
0.0
 40
2.5
  0
CIRCLE
  5
4E
100
AcDbEntity
100
AcDbCircle
  8
cut
 62
256
370
-1
  6
ByLayer
 10
132.1302938176793589
 20
-58.3448853718879263
 30
0.0
 40
2.5
  0
CIRCLE
  5
4F
100
AcDbEntity
100
AcDbCircle
  8
cut
 62
256
370
-1
  6
ByLayer
 10
142.3467630745152235
 20
-64.633121433717065
 30
0.0
 40
2.5
  0
CIRCLE
  5
50
100
AcDbEntity
100
AcDbCircle
  8
cut
 62
256
370
-1
  6
ByLayer
 10
152.5511617010375573
 20
-70.9722582672608269
 30
0.0
 40
2.5
  0
CIRCLE
  5
51
100
AcDbEntity
100
AcDbCircle
  8
cut
 62
256
370
-1
  6
ByLayer
 10
162.7813319602245201
 20
-77.3017840534066636
 30
0.0
 40
2.5
  0
CIRCLE
  5
52
100
AcDbEntity
100
AcDbCircle
  8
cut
 62
256
370
-1
  6
ByLayer
 10
166.0275225800189673
 20
-56.799980980197347
 30
0.0
 40
3.0
  0
CIRCLE
  5
53
100
AcDbEntity
100
AcDbCircle
  8
cut
 62
256
370
-1
  6
ByLayer
 10
138.2532551792143352
 20
-38.7125278176728216
 30
0.0
 40
11.0
  0
CIRCLE
  5
54
100
AcDbEntity
100
AcDbCircle
  8
cut
 62
256
370
-1
  6
ByLayer
 10
152.103003878094313
 20
-36.6620495861681093
 30
0.0
 40
1.6000000000000001
  0
CIRCLE
  5
55
100
AcDbEntity
100
AcDbCircle
  8
cut
 62
256
370
-1
  6
ByLayer
 10
124.403506480334471
 20
-40.7630060491775339
 30
0.0
 40
1.6000000000000001
  0
ARC
  5
56
100
AcDbEntity
  8
cut
 62
256
370
-1
  6
ByLayer
100
AcDbCircle
 10
114.7487373415292922
 20
-19.3933982822019289
 30
0.0
 40
10.0
100
AcDbArc
 50
205.5287793655087398
 51
64.4712190660087714
  0
ARC
  5
57
100
AcDbEntity
  8
cut
 62
256
370
-1
  6
ByLayer
100
AcDbCircle
 10
121.2132034355964549
 20
-5.8578643762691627
 30
0.0
 40
5.0
100
AcDbArc
 50
134.9999999999999716
 51
244.4712237714558967
  0
ARC
  5
58
100
AcDbEntity
  8
cut
 62
256
370
-1
  6
ByLayer
100
AcDbCircle
 10
101.2132034355965118
 20
-25.857864376269049
 30
0.0
 40
5.0
100
AcDbArc
 50
25.5287793655087292
 51
135.0000000000000568
  0
CIRCLE
  5
59
100
AcDbEntity
100
AcDbCircle
  8
cut
 62
256
370
-1
  6
ByLayer
 10
243.2162812319108411
 20
-67.5767078145847222
 30
0.0
 40
2.5
  0
CIRCLE
  5
5A
100
AcDbEntity
100
AcDbCircle
  8
cut
 62
256
370
-1
  6
ByLayer
 10
255.0709554787633522
 20
-69.5061407938151206
 30
0.0
 40
2.5
  0
CIRCLE
  5
5B
100
AcDbEntity
100
AcDbCircle
  8
cut
 62
256
370
-1
  6
ByLayer
 10
266.9064351333659602
 20
-71.456385559887849
 30
0.0
 40
2.5
  0
CIRCLE
  5
5C
100
AcDbEntity
100
AcDbCircle
  8
cut
 62
256
370
-1
  6
ByLayer
 10
278.7759241071931342
 20
-73.3508565473698013
 30
0.0
 40
2.5
  0
CIRCLE
  5
5D
100
AcDbEntity
100
AcDbCircle
  8
cut
 62
256
370
-1
  6
ByLayer
 10
237.0974388273871796
 20
-105.0965193991884234
 30
0.0
 40
2.5
  0
CIRCLE
  5
5E
100
AcDbEntity
100
AcDbCircle
  8
cut
 62
256
370
-1
  6
ByLayer
 10
248.9426294279713545
 20
-106.9964184704534773
 30
0.0
 40
2.5
  0
CIRCLE
  5
5F
100
AcDbEntity
100
AcDbCircle
  8
cut
 62
256
370
-1
  6
ByLayer
 10
260.7961471022940145
 20
-108.9479629531338105
 30
0.0
 40
2.5
  0
CIRCLE
  5
60
100
AcDbEntity
100
AcDbCircle
  8
cut
 62
256
370
-1
  6
ByLayer
 10
272.6697966719480064
 20
-110.8807656089912825
 30
0.0
 40
2.5
  0
CIRCLE
  5
61
100
AcDbEntity
100
AcDbCircle
  8
cut
 62
256
370
-1
  6
ByLayer
 10
267.8231853744774753
 20
-90.6973060015819783
 30
0.0
 40
3.0
  0
CIRCLE
  5
62
100
AcDbEntity
100
AcDbCircle
  8
cut
 62
256
370
-1
  6
ByLayer
 10
235.2413395334007475
 20
-84.6154302098346989
 30
0.0
 40
11.0
  0
CIRCLE
  5
63
100
AcDbEntity
100
AcDbCircle
  8
cut
 62
256
370
-1
  6
ByLayer
 10
247.2521548390986652
 20
-77.4209659704062005
 30
0.0
 40
1.6000000000000001
  0
CIRCLE
  5
64
100
AcDbEntity
100
AcDbCircle
  8
cut
 62
256
370
-1
  6
ByLayer
 10
223.2305242277030288
 20
-91.8098944492630835
 30
0.0
 40
1.6000000000000001
  0
CIRCLE
  5
65
100
AcDbEntity
100
AcDbCircle
  8
cut
 62
256
370
-1
  6
ByLayer
 10
343.2603744475585472
 20
-71.114844250430906
 30
0.0
 40
2.5
  0
CIRCLE
  5
66
100
AcDbEntity
100
AcDbCircle
  8
cut
 62
256
370
-1
  6
ByLayer
 10
354.9510273838243393
 20
-68.3608204589386332
 30
0.0
 40
2.5
  0
CIRCLE
  5
67
100
AcDbEntity
100
AcDbCircle
  8
cut
 62
256
370
-1
  6
ByLayer
 10
366.6319111551983951
 20
-65.633369703789981
 30
0.0
 40
2.5
  0
CIRCLE
  5
68
100
AcDbEntity
100
AcDbCircle
  8
cut
 62
256
370
-1
  6
ByLayer
 10
378.3228717394912906
 20
-62.8413758931373536
 30
0.0
 40
2.5
  0
CIRCLE
  5
69
100
AcDbEntity
100
AcDbCircle
  8
cut
 62
256
370
-1
  6
ByLayer
 10
351.9655114662442088
 20
-108.1202098505904132
 30
0.0
 40
2.5
  0
CIRCLE
  5
6A
100
AcDbEntity
100
AcDbCircle
  8
cut
 62
256
370
-1
  6
ByLayer
 10
363.6361005185578961
 20
-105.3425295203189762
 30
0.0
 40
2.5
  0
CIRCLE
  5
6B
100
AcDbEntity
100
AcDbCircle
  8
cut
 62
256
370
-1
  6
ByLayer
 10
375.3341466271708669
 20
-102.6093766954426201
 30
0.0
 40
2.5
  0
CIRCLE
  5
6C
100
AcDbEntity
100
AcDbCircle
  8
cut
 62
256
370
-1
  6
ByLayer
 10
387.0436199952134757
 20
-99.8512045375575781
 30
0.0
 40
2.5
  0
CIRCLE
  5
6D
100
AcDbEntity
100
AcDbCircle
  8
cut
 62
256
370
-1
  6
ByLayer
 10
374.8420594158769745
 20
-83.0588371576592408
 30
0.0
 40
3.0
  0
CIRCLE
  5
6E
100
AcDbEntity
100
AcDbCircle
  8
cut
 62
256
370
-1
  6
ByLayer
 10
342.4129258086645109
 20
-89.9084491936413315
 30
0.0
 40
11.0
  0
CIRCLE
  5
6F
100
AcDbEntity
100
AcDbCircle
  8
cut
 62
256
370
-1
  6
ByLayer
 10
350.7562699691997068
 20
-78.6652909087615626
 30
0.0
 40
1.6000000000000001
  0
CIRCLE
  5
70
100
AcDbEntity
100
AcDbCircle
  8
cut
 62
256
370
-1
  6
ByLayer
 10
334.0695816481292013
 20
-101.1516074785213277
 30
0.0
 40
1.6000000000000001
  0
CIRCLE
  5
71
100
AcDbEntity
100
AcDbCircle
  8
cut
 62
256
370
-1
  6
ByLayer
 10
437.0430507135918106
 20
-36.0984391071249888
 30
0.0
 40
2.5
  0
CIRCLE
  5
72
100
AcDbEntity
100
AcDbCircle
  8
cut
 62
256
370
-1
  6
ByLayer
 10
446.7898864057575565
 20
-29.080233701876864
 30
0.0
 40
2.5
  0
CIRCLE
  5
73
100
AcDbEntity
100
AcDbCircle
  8
cut
 62
256
370
-1
  6
ByLayer
 10
456.5378656271860791
 20
-22.0903170785757084
 30
0.0
 40
2.5
  0
CIRCLE
  5
74
100
AcDbEntity
100
AcDbCircle
  8
cut
 62
256
370
-1
  6
ByLayer
 10
466.2704550518079714
 20
-15.0369142179731625
 30
0.0
 40
2.5
  0
CIRCLE
  5
75
100
AcDbEntity
100
AcDbCircle
  8
cut
 62
256
370
-1
  6
ByLayer
 10
459.2468889566562211
 20
-66.9556272646904063
 30
0.0
 40
2.5
  0
CIRCLE
  5
76
100
AcDbEntity
100
AcDbCircle
  8
cut
 62
256
370
-1
  6
ByLayer
 10
468.9661350716379502
 20
-59.9232441834315068
 30
0.0
 40
2.5
  0
CIRCLE
  5
77
100
AcDbEntity
100
AcDbCircle
  8
cut
 62
256
370
-1
  6
ByLayer
 10
478.7277881375565585
 20
-52.9214917924939527
 30
0.0
 40
2.5
  0
CIRCLE
  5
78
100
AcDbEntity
100
AcDbCircle
  8
cut
 62
256
370
-1
  6
ByLayer
 10
488.4904241303438539
 20
-45.8922515290112187
 30
0.0
 40
2.5
  0
CIRCLE
  5
79
100
AcDbEntity
100
AcDbCircle
  8
cut
 62
256
370
-1
  6
ByLayer
 10
470.7914912599230775
 20
-35.0474620870240869
 30
0.0
 40
3.0
  0
CIRCLE
  5
7A
100
AcDbEntity
100
AcDbCircle
  8
cut
 62
256
370
-1
  6
ByLayer
 10
443.4521115074443287
 20
-53.7857706101452209
 30
0.0
 40
11.0
  0
CIRCLE
  5
7B
100
AcDbEntity
100
AcDbCircle
  8
cut
 62
256
370
-1
  6
ByLayer
 10
446.857786006978472
 20
-40.2055872092030313
 30
0.0
 40
1.6000000000000001
  0
CIRCLE
  5
7C
100
AcDbEntity
100
AcDbCircle
  8
cut
 62
256
370
-1
  6
ByLayer
 10
440.0464370079102991
 20
-67.3659540110870694
 30
0.0
 40
1.6000000000000001
  0
ARC
  5
7D
100
AcDbEntity
  8
cut
 62
256
370
-1
  6
ByLayer
100
AcDbCircle
 10
503.6574669941302318
 20
-5.2512626584712621
 30
0.0
 40
10.0
100
AcDbArc
 50
295.528779365508683
 51
154.4712206344911181
  0
ARC
  5
7E
100
AcDbEntity
  8
cut
 62
256
370
-1
  6
ByLayer
100
AcDbCircle
 10
510.1219330881974656
 20
-18.7867965644042556
 30
0.0
 40
5.0
100
AcDbArc
 50
115.5287793655087256
 51
225.0000000000000853
  0
ARC
  5
7F
100
AcDbEntity
  8
cut
 62
256
370
-1
  6
ByLayer
100
AcDbCircle
 10
490.1219330881974656
 20
1.2132034355958581
 30
0.0
 40
5.0
100
AcDbArc
 50
224.9999999999999716
 51
334.4712206344913739
  0
LINE
  5
80
100
AcDbEntity
100
AcDbLine
  8
cut
 62
256
370
-1
  6
ByLayer
 10
97.6776695296637172
 20
-22.3223304703363965
 30
0.0
 11
90.0000000000000568
 21
-30.0000000000000568
 31
0.0
  0
LINE
  5
81
100
AcDbEntity
100
AcDbLine
  8
cut
 62
256
370
-1
  6
ByLayer
 10
125.3553390593274628
 20
5.3553390593273207
 30
0.0
 11
117.677669529663703
 21
-2.3223304703363965
 31
0.0
  0
ARC
  5
82
100
AcDbEntity
  8
cut
 62
256
370
-1
  6
ByLayer
100
AcDbCircle
 10
302.1320343559643788
 20
182.1320343559641799
 30
0.0
 40
250.0000000000000284
100
AcDbArc
 50
224.9999999999999716
 51
314.9999999999999432
  0
LINE
  5
83
100
AcDbEntity
100
AcDbLine
  8
cut
 62
256
370
-1
  6
ByLayer
 10
478.9087296526010959
 20
5.3553390593269228
 30
0.0
 11
486.5863991822649268
 21
-2.3223304703367944
 31
0.0
  0
ARC
  5
84
100
AcDbEntity
  8
cut
 62
256
370
-1
  6
ByLayer
100
AcDbCircle
 10
302.1320343559643788
 20
182.1320343559641799
 30
0.0
 40
300.0000000000000568
100
AcDbArc
 50
224.9999999999999716
 51
314.9999999999999432
  0
LINE
  5
85
100
AcDbEntity
100
AcDbLine
  8
cut
 62
256
370
-1
  6
ByLayer
 10
506.5863991822646994
 20
-22.3223304703366807
 30
0.0
 11
514.2640687119283029
 21
-30.0000000000005684
 31
0.0
  0
LINE
  5
86
100
AcDbEntity
100
AcDbLine
  8
frame
 62
256
370
-1
  6
ByLayer
 10
125.3553390593274628
 20
5.3553390593273207
 30
0.0
 11
478.9087296526010959
 21
5.3553390593269228
 31
0.0
  0
ARC
  5
87
100
AcDbEntity
  8
frame
 62
256
370
-1
  6
ByLayer
100
AcDbCircle
 10
302.1320343559643788
 20
182.1320343559641799
 30
0.0
 40
303.0000000000000568
100
AcDbArc
 50
224.9999999999999716
 51
314.9999999999999432
  0
LINE
  5
88
100
AcDbEntity
100
AcDbLine
  8
frame
 62
256
370
-1
  6
ByLayer
 10
125.3553390593274628
 20
-94.6446609406726793
 30
0.0
 11
125.355339059327477
 21
105.3553390593273207
 31
0.0
  0
LINE
  5
89
100
AcDbEntity
100
AcDbLine
  8
frame
 62
256
370
-1
  6
ByLayer
 10
416.9370640654914268
 20
-95.0318253974218408
 30
0.0
 11
397.8028924472368431
 21
-48.8378487718575585
 31
0.0
  0
LINE
  5
8A
100
AcDbEntity
100
AcDbLine
  8
frame
 62
256
370
-1
  6
ByLayer
 10
302.1320343559642652
 20
-117.8679656440358769
 30
0.0
 11
302.1320343559642652
 21
-67.8679656440358343
 31
0.0
  0
MTEXT
  5
8B
100
AcDbEntity
100
AcDbMText
  8
engrave
 62
256
370
-1
  6
ByLayer
 10
407.3699782563641065
 20
-71.9348370846396961
 30
0.0
 40
4.0
 41
100.0
 71
5
 72
0
  1
Proj CAPA\PSPSC 2016
  7
standard
 50
22.5
 73
1
 44
1.0
  0
MTEXT
  5
8C
100
AcDbEntity
100
AcDbMText
  8
engrave
 62
256
370
-1
  6
ByLayer
 10
302.1320343559642652
 20
-92.8679656440358485
 30
0.0
 40
4.0
 41
100.0
 71
5
 72
0
  1
P/N: 16CCMA01\PT/N: ____
  7
standard
 50
0.0
 73
1
 44
1.0
  0
CIRCLE
  5
8D
100
AcDbEntity
100
AcDbCircle
  8
cut
 62
256
370
-1
  6
ByLayer
 10
152.1415773567686927
 20
-95.333366556159973
 30
0.0
 40
2.5
  0
CIRCLE
  5
8E
100
AcDbEntity
100
AcDbCircle
  8
cut
 62
256
370
-1
  6
ByLayer
 10
162.3555062230141175
 20
-101.6525176253786924
 30
0.0
 40
2.5
  0
CIRCLE
  5
8F
100
AcDbEntity
100
AcDbCircle
  8
cut
 62
256
370
-1
  6
ByLayer
 10
172.5437372723223461
 20
-107.9835508260511858
 30
0.0
 40
2.5
  0
CIRCLE
  5
90
100
AcDbEntity
100
AcDbCircle
  8
cut
 62
256
370
-1
  6
ByLayer
 10
182.7847325366041105
 20
-114.2760705772459744
 30
0.0
 40
2.5
  0
CIRCLE
  5
91
100
AcDbEntity
100
AcDbCircle
  8
cut
 62
256
370
-1
  6
ByLayer
 10
132.1302938176793589
 20
-127.6555729293908996
 30
0.0
 40
2.5
  0
CIRCLE
  5
92
100
AcDbEntity
100
AcDbCircle
  8
cut
 62
256
370
-1
  6
ByLayer
 10
142.3467630745152235
 20
-133.9438089912200383
 30
0.0
 40
2.5
  0
CIRCLE
  5
93
100
AcDbEntity
100
AcDbCircle
  8
cut
 62
256
370
-1
  6
ByLayer
 10
152.5511617010375573
 20
-140.2829458247638001
 30
0.0
 40
2.5
  0
CIRCLE
  5
94
100
AcDbEntity
100
AcDbCircle
  8
cut
 62
256
370
-1
  6
ByLayer
 10
162.7813319602245201
 20
-146.6124716109096369
 30
0.0
 40
2.5
  0
CIRCLE
  5
95
100
AcDbEntity
100
AcDbCircle
  8
cut
 62
256
370
-1
  6
ByLayer
 10
166.0275225800189673
 20
-126.1106685377003203
 30
0.0
 40
3.0
  0
CIRCLE
  5
96
100
AcDbEntity
100
AcDbCircle
  8
cut
 62
256
370
-1
  6
ByLayer
 10
138.2532551792143352
 20
-108.0232153751757949
 30
0.0
 40
11.0
  0
CIRCLE
  5
97
100
AcDbEntity
100
AcDbCircle
  8
cut
 62
256
370
-1
  6
ByLayer
 10
152.103003878094313
 20
-105.9727371436710825
 30
0.0
 40
1.6000000000000001
  0
CIRCLE
  5
98
100
AcDbEntity
100
AcDbCircle
  8
cut
 62
256
370
-1
  6
ByLayer
 10
124.403506480334471
 20
-110.0736936066805072
 30
0.0
 40
1.6000000000000001
  0
ARC
  5
99
100
AcDbEntity
  8
cut
 62
256
370
-1
  6
ByLayer
100
AcDbCircle
 10
114.7487373415292922
 20
-88.7040858397049021
 30
0.0
 40
10.0
100
AcDbArc
 50
205.5287793655087398
 51
64.4712190660087714
  0
ARC
  5
9A
100
AcDbEntity
  8
cut
 62
256
370
-1
  6
ByLayer
100
AcDbCircle
 10
121.2132034355964549
 20
-75.168551933772136
 30
0.0
 40
5.0
100
AcDbArc
 50
134.9999999999999716
 51
244.4712237714558967
  0
ARC
  5
9B
100
AcDbEntity
  8
cut
 62
256
370
-1
  6
ByLayer
100
AcDbCircle
 10
101.2132034355965118
 20
-95.1685519337720223
 30
0.0
 40
5.0
100
AcDbArc
 50
25.5287793655087292
 51
135.0000000000000568
  0
CIRCLE
  5
9C
100
AcDbEntity
100
AcDbCircle
  8
cut
 62
256
370
-1
  6
ByLayer
 10
243.2162812319108411
 20
-136.8873953720876955
 30
0.0
 40
2.5
  0
CIRCLE
  5
9D
100
AcDbEntity
100
AcDbCircle
  8
cut
 62
256
370
-1
  6
ByLayer
 10
255.0709554787633522
 20
-138.8168283513180938
 30
0.0
 40
2.5
  0
CIRCLE
  5
9E
100
AcDbEntity
100
AcDbCircle
  8
cut
 62
256
370
-1
  6
ByLayer
 10
266.9064351333659602
 20
-140.7670731173908223
 30
0.0
 40
2.5
  0
CIRCLE
  5
9F
100
AcDbEntity
100
AcDbCircle
  8
cut
 62
256
370
-1
  6
ByLayer
 10
278.7759241071931342
 20
-142.6615441048727746
 30
0.0
 40
2.5
  0
CIRCLE
  5
A0
100
AcDbEntity
100
AcDbCircle
  8
cut
 62
256
370
-1
  6
ByLayer
 10
237.0974388273871796
 20
-174.4072069566913967
 30
0.0
 40
2.5
  0
CIRCLE
  5
A1
100
AcDbEntity
100
AcDbCircle
  8
cut
 62
256
370
-1
  6
ByLayer
 10
248.9426294279713545
 20
-176.3071060279564506
 30
0.0
 40
2.5
  0
CIRCLE
  5
A2
100
AcDbEntity
100
AcDbCircle
  8
cut
 62
256
370
-1
  6
ByLayer
 10
260.7961471022940145
 20
-178.2586505106367838
 30
0.0
 40
2.5
  0
CIRCLE
  5
A3
100
AcDbEntity
100
AcDbCircle
  8
cut
 62
256
370
-1
  6
ByLayer
 10
272.6697966719480064
 20
-180.1914531664942558
 30
0.0
 40
2.5
  0
CIRCLE
  5
A4
100
AcDbEntity
100
AcDbCircle
  8
cut
 62
256
370
-1
  6
ByLayer
 10
267.8231853744774753
 20
-160.0079935590849516
 30
0.0
 40
3.0
  0
CIRCLE
  5
A5
100
AcDbEntity
100
AcDbCircle
  8
cut
 62
256
370
-1
  6
ByLayer
 10
235.2413395334007475
 20
-153.9261177673376721
 30
0.0
 40
11.0
  0
CIRCLE
  5
A6
100
AcDbEntity
100
AcDbCircle
  8
cut
 62
256
370
-1
  6
ByLayer
 10
247.2521548390986652
 20
-146.7316535279091738
 30
0.0
 40
1.6000000000000001
  0
CIRCLE
  5
A7
100
AcDbEntity
100
AcDbCircle
  8
cut
 62
256
370
-1
  6
ByLayer
 10
223.2305242277030288
 20
-161.1205820067660568
 30
0.0
 40
1.6000000000000001
  0
CIRCLE
  5
A8
100
AcDbEntity
100
AcDbCircle
  8
cut
 62
256
370
-1
  6
ByLayer
 10
343.2603744475585472
 20
-140.4255318079338792
 30
0.0
 40
2.5
  0
CIRCLE
  5
A9
100
AcDbEntity
100
AcDbCircle
  8
cut
 62
256
370
-1
  6
ByLayer
 10
354.9510273838243393
 20
-137.6715080164416065
 30
0.0
 40
2.5
  0
CIRCLE
  5
AA
100
AcDbEntity
100
AcDbCircle
  8
cut
 62
256
370
-1
  6
ByLayer
 10
366.6319111551983951
 20
-134.9440572612929543
 30
0.0
 40
2.5
  0
CIRCLE
  5
AB
100
AcDbEntity
100
AcDbCircle
  8
cut
 62
256
370
-1
  6
ByLayer
 10
378.3228717394912906
 20
-132.1520634506403269
 30
0.0
 40
2.5
  0
CIRCLE
  5
AC
100
AcDbEntity
100
AcDbCircle
  8
cut
 62
256
370
-1
  6
ByLayer
 10
351.9655114662442088
 20
-177.4308974080933865
 30
0.0
 40
2.5
  0
CIRCLE
  5
AD
100
AcDbEntity
100
AcDbCircle
  8
cut
 62
256
370
-1
  6
ByLayer
 10
363.6361005185578961
 20
-174.6532170778219495
 30
0.0
 40
2.5
  0
CIRCLE
  5
AE
100
AcDbEntity
100
AcDbCircle
  8
cut
 62
256
370
-1
  6
ByLayer
 10
375.3341466271708669
 20
-171.9200642529455934
 30
0.0
 40
2.5
  0
CIRCLE
  5
AF
100
AcDbEntity
100
AcDbCircle
  8
cut
 62
256
370
-1
  6
ByLayer
 10
387.0436199952134757
 20
-169.1618920950605514
 30
0.0
 40
2.5
  0
CIRCLE
  5
B0
100
AcDbEntity
100
AcDbCircle
  8
cut
 62
256
370
-1
  6
ByLayer
 10
374.8420594158769745
 20
-152.3695247151622141
 30
0.0
 40
3.0
  0
CIRCLE
  5
B1
100
AcDbEntity
100
AcDbCircle
  8
cut
 62
256
370
-1
  6
ByLayer
 10
342.4129258086645109
 20
-159.2191367511443048
 30
0.0
 40
11.0
  0
CIRCLE
  5
B2
100
AcDbEntity
100
AcDbCircle
  8
cut
 62
256
370
-1
  6
ByLayer
 10
350.7562699691997068
 20
-147.9759784662645359
 30
0.0
 40
1.6000000000000001
  0
CIRCLE
  5
B3
100
AcDbEntity
100
AcDbCircle
  8
cut
 62
256
370
-1
  6
ByLayer
 10
334.0695816481292013
 20
-170.462295036024301
 30
0.0
 40
1.6000000000000001
  0
CIRCLE
  5
B4
100
AcDbEntity
100
AcDbCircle
  8
cut
 62
256
370
-1
  6
ByLayer
 10
437.0430507135918106
 20
-105.4091266646279621
 30
0.0
 40
2.5
  0
CIRCLE
  5
B5
100
AcDbEntity
100
AcDbCircle
  8
cut
 62
256
370
-1
  6
ByLayer
 10
446.7898864057575565
 20
-98.3909212593798372
 30
0.0
 40
2.5
  0
CIRCLE
  5
B6
100
AcDbEntity
100
AcDbCircle
  8
cut
 62
256
370
-1
  6
ByLayer
 10
456.5378656271860791
 20
-91.4010046360786816
 30
0.0
 40
2.5
  0
CIRCLE
  5
B7
100
AcDbEntity
100
AcDbCircle
  8
cut
 62
256
370
-1
  6
ByLayer
 10
466.2704550518079714
 20
-84.3476017754761358
 30
0.0
 40
2.5
  0
CIRCLE
  5
B8
100
AcDbEntity
100
AcDbCircle
  8
cut
 62
256
370
-1
  6
ByLayer
 10
459.2468889566562211
 20
-136.2663148221933795
 30
0.0
 40
2.5
  0
CIRCLE
  5
B9
100
AcDbEntity
100
AcDbCircle
  8
cut
 62
256
370
-1
  6
ByLayer
 10
468.9661350716379502
 20
-129.2339317409344801
 30
0.0
 40
2.5
  0
CIRCLE
  5
BA
100
AcDbEntity
100
AcDbCircle
  8
cut
 62
256
370
-1
  6
ByLayer
 10
478.7277881375565585
 20
-122.232179349996926
 30
0.0
 40
2.5
  0
CIRCLE
  5
BB
100
AcDbEntity
100
AcDbCircle
  8
cut
 62
256
370
-1
  6
ByLayer
 10
488.4904241303438539
 20
-115.202939086514192
 30
0.0
 40
2.5
  0
CIRCLE
  5
BC
100
AcDbEntity
100
AcDbCircle
  8
cut
 62
256
370
-1
  6
ByLayer
 10
470.7914912599230775
 20
-104.3581496445270602
 30
0.0
 40
3.0
  0
CIRCLE
  5
BD
100
AcDbEntity
100
AcDbCircle
  8
cut
 62
256
370
-1
  6
ByLayer
 10
443.4521115074443287
 20
-123.0964581676481941
 30
0.0
 40
11.0
  0
CIRCLE
  5
BE
100
AcDbEntity
100
AcDbCircle
  8
cut
 62
256
370
-1
  6
ByLayer
 10
446.857786006978472
 20
-109.5162747667060046
 30
0.0
 40
1.6000000000000001
  0
CIRCLE
  5
BF
100
AcDbEntity
100
AcDbCircle
  8
cut
 62
256
370
-1
  6
ByLayer
 10
440.0464370079102991
 20
-136.6766415685900427
 30
0.0
 40
1.6000000000000001
  0
ARC
  5
C0
100
AcDbEntity
  8
cut
 62
256
370
-1
  6
ByLayer
100
AcDbCircle
 10
503.6574669941302318
 20
-74.5619502159742353
 30
0.0
 40
10.0
100
AcDbArc
 50
295.528779365508683
 51
154.4712206344911181
  0
ARC
  5
C1
100
AcDbEntity
  8
cut
 62
256
370
-1
  6
ByLayer
100
AcDbCircle
 10
510.1219330881974656
 20
-88.0974841219072289
 30
0.0
 40
5.0
100
AcDbArc
 50
115.5287793655087256
 51
225.0000000000000853
  0
ARC
  5
C2
100
AcDbEntity
  8
cut
 62
256
370
-1
  6
ByLayer
100
AcDbCircle
 10
490.1219330881974656
 20
-68.0974841219071152
 30
0.0
 40
5.0
100
AcDbArc
 50
224.9999999999999716
 51
334.4712206344913739
  0
LINE
  5
C3
100
AcDbEntity
100
AcDbLine
  8
cut
 62
256
370
-1
  6
ByLayer
 10
97.6776695296637172
 20
-91.6330180278393698
 30
0.0
 11
90.0000000000000568
 21
-99.3106875575030301
 31
0.0
  0
LINE
  5
C4
100
AcDbEntity
100
AcDbLine
  8
cut
 62
256
370
-1
  6
ByLayer
 10
125.3553390593274628
 20
-63.9553484981756526
 30
0.0
 11
117.677669529663703
 21
-71.6330180278393698
 31
0.0
  0
ARC
  5
C5
100
AcDbEntity
  8
cut
 62
256
370
-1
  6
ByLayer
100
AcDbCircle
 10
302.1320343559643788
 20
112.8213467984612066
 30
0.0
 40
250.0000000000000284
100
AcDbArc
 50
224.9999999999999716
 51
314.9999999999999432
  0
LINE
  5
C6
100
AcDbEntity
100
AcDbLine
  8
cut
 62
256
370
-1
  6
ByLayer
 10
478.9087296526010959
 20
-63.9553484981760505
 30
0.0
 11
486.5863991822649268
 21
-71.6330180278397677
 31
0.0
  0
ARC
  5
C7
100
AcDbEntity
  8
cut
 62
256
370
-1
  6
ByLayer
100
AcDbCircle
 10
302.1320343559643788
 20
112.8213467984612066
 30
0.0
 40
300.0000000000000568
100
AcDbArc
 50
224.9999999999999716
 51
314.9999999999999432
  0
LINE
  5
C8
100
AcDbEntity
100
AcDbLine
  8
cut
 62
256
370
-1
  6
ByLayer
 10
506.5863991822646994
 20
-91.633018027839654
 30
0.0
 11
514.2640687119283029
 21
-99.3106875575035417
 31
0.0
  0
MTEXT
  5
C9
100
AcDbEntity
100
AcDbMText
  8
engrave
 62
256
370
-1
  6
ByLayer
 10
407.3699782563641065
 20
-141.2455246421426693
 30
0.0
 40
4.0
 41
100.0
 71
5
 72
0
  1
Proj CAPA\PSPSC 2016
  7
standard
 50
22.5
 73
1
 44
1.0
  0
MTEXT
  5
CA
100
AcDbEntity
100
AcDbMText
  8
engrave
 62
256
370
-1
  6
ByLayer
 10
302.1320343559642652
 20
-162.1786532015388218
 30
0.0
 40
4.0
 41
100.0
 71
5
 72
0
  1
P/N: 16CCMA01\PT/N: ____
  7
standard
 50
0.0
 73
1
 44
1.0
  0
CIRCLE
  5
CB
100
AcDbEntity
100
AcDbCircle
  8
cut
 62
256
370
-1
  6
ByLayer
 10
152.1415773567686927
 20
-164.6440541136629463
 30
0.0
 40
2.5
  0
CIRCLE
  5
CC
100
AcDbEntity
100
AcDbCircle
  8
cut
 62
256
370
-1
  6
ByLayer
 10
162.3555062230141175
 20
-170.9632051828816657
 30
0.0
 40
2.5
  0
CIRCLE
  5
CD
100
AcDbEntity
100
AcDbCircle
  8
cut
 62
256
370
-1
  6
ByLayer
 10
172.5437372723223461
 20
-177.2942383835541591
 30
0.0
 40
2.5
  0
CIRCLE
  5
CE
100
AcDbEntity
100
AcDbCircle
  8
cut
 62
256
370
-1
  6
ByLayer
 10
182.7847325366041105
 20
-183.5867581347489477
 30
0.0
 40
2.5
  0
CIRCLE
  5
CF
100
AcDbEntity
100
AcDbCircle
  8
cut
 62
256
370
-1
  6
ByLayer
 10
132.1302938176793589
 20
-196.9662604868938729
 30
0.0
 40
2.5
  0
CIRCLE
  5
D0
100
AcDbEntity
100
AcDbCircle
  8
cut
 62
256
370
-1
  6
ByLayer
 10
142.3467630745152235
 20
-203.2544965487230115
 30
0.0
 40
2.5
  0
CIRCLE
  5
D1
100
AcDbEntity
100
AcDbCircle
  8
cut
 62
256
370
-1
  6
ByLayer
 10
152.5511617010375573
 20
-209.5936333822667734
 30
0.0
 40
2.5
  0
CIRCLE
  5
D2
100
AcDbEntity
100
AcDbCircle
  8
cut
 62
256
370
-1
  6
ByLayer
 10
162.7813319602245201
 20
-215.9231591684126101
 30
0.0
 40
2.5
  0
CIRCLE
  5
D3
100
AcDbEntity
100
AcDbCircle
  8
cut
 62
256
370
-1
  6
ByLayer
 10
166.0275225800189673
 20
-195.4213560952032935
 30
0.0
 40
3.0
  0
CIRCLE
  5
D4
100
AcDbEntity
100
AcDbCircle
  8
cut
 62
256
370
-1
  6
ByLayer
 10
138.2532551792143352
 20
-177.3339029326787681
 30
0.0
 40
11.0
  0
CIRCLE
  5
D5
100
AcDbEntity
100
AcDbCircle
  8
cut
 62
256
370
-1
  6
ByLayer
 10
152.103003878094313
 20
-175.2834247011740558
 30
0.0
 40
1.6000000000000001
  0
CIRCLE
  5
D6
100
AcDbEntity
100
AcDbCircle
  8
cut
 62
256
370
-1
  6
ByLayer
 10
124.403506480334471
 20
-179.3843811641834805
 30
0.0
 40
1.6000000000000001
  0
ARC
  5
D7
100
AcDbEntity
  8
cut
 62
256
370
-1
  6
ByLayer
100
AcDbCircle
 10
114.7487373415292922
 20
-158.0147733972078754
 30
0.0
 40
10.0
100
AcDbArc
 50
205.5287793655087398
 51
64.4712190660087714
  0
ARC
  5
D8
100
AcDbEntity
  8
cut
 62
256
370
-1
  6
ByLayer
100
AcDbCircle
 10
121.2132034355964549
 20
-144.4792394912751092
 30
0.0
 40
5.0
100
AcDbArc
 50
134.9999999999999716
 51
244.4712237714558967
  0
ARC
  5
D9
100
AcDbEntity
  8
cut
 62
256
370
-1
  6
ByLayer
100
AcDbCircle
 10
101.2132034355965118
 20
-164.4792394912749955
 30
0.0
 40
5.0
100
AcDbArc
 50
25.5287793655087292
 51
135.0000000000000568
  0
CIRCLE
  5
DA
100
AcDbEntity
100
AcDbCircle
  8
cut
 62
256
370
-1
  6
ByLayer
 10
243.2162812319108411
 20
-206.1980829295906688
 30
0.0
 40
2.5
  0
CIRCLE
  5
DB
100
AcDbEntity
100
AcDbCircle
  8
cut
 62
256
370
-1
  6
ByLayer
 10
255.0709554787633522
 20
-208.1275159088210671
 30
0.0
 40
2.5
  0
CIRCLE
  5
DC
100
AcDbEntity
100
AcDbCircle
  8
cut
 62
256
370
-1
  6
ByLayer
 10
266.9064351333659602
 20
-210.0777606748937956
 30
0.0
 40
2.5
  0
CIRCLE
  5
DD
100
AcDbEntity
100
AcDbCircle
  8
cut
 62
256
370
-1
  6
ByLayer
 10
278.7759241071931342
 20
-211.9722316623757479
 30
0.0
 40
2.5
  0
CIRCLE
  5
DE
100
AcDbEntity
100
AcDbCircle
  8
cut
 62
256
370
-1
  6
ByLayer
 10
237.0974388273871796
 20
-243.71789451419437
 30
0.0
 40
2.5
  0
CIRCLE
  5
DF
100
AcDbEntity
100
AcDbCircle
  8
cut
 62
256
370
-1
  6
ByLayer
 10
248.9426294279713545
 20
-245.6177935854594239
 30
0.0
 40
2.5
  0
CIRCLE
  5
E0
100
AcDbEntity
100
AcDbCircle
  8
cut
 62
256
370
-1
  6
ByLayer
 10
260.7961471022940145
 20
-247.5693380681397571
 30
0.0
 40
2.5
  0
CIRCLE
  5
E1
100
AcDbEntity
100
AcDbCircle
  8
cut
 62
256
370
-1
  6
ByLayer
 10
272.6697966719480064
 20
-249.5021407239972291
 30
0.0
 40
2.5
  0
CIRCLE
  5
E2
100
AcDbEntity
100
AcDbCircle
  8
cut
 62
256
370
-1
  6
ByLayer
 10
267.8231853744774753
 20
-229.3186811165879249
 30
0.0
 40
3.0
  0
CIRCLE
  5
E3
100
AcDbEntity
100
AcDbCircle
  8
cut
 62
256
370
-1
  6
ByLayer
 10
235.2413395334007475
 20
-223.2368053248406454
 30
0.0
 40
11.0
  0
CIRCLE
  5
E4
100
AcDbEntity
100
AcDbCircle
  8
cut
 62
256
370
-1
  6
ByLayer
 10
247.2521548390986652
 20
-216.0423410854121471
 30
0.0
 40
1.6000000000000001
  0
CIRCLE
  5
E5
100
AcDbEntity
100
AcDbCircle
  8
cut
 62
256
370
-1
  6
ByLayer
 10
223.2305242277030288
 20
-230.4312695642690301
 30
0.0
 40
1.6000000000000001
  0
CIRCLE
  5
E6
100
AcDbEntity
100
AcDbCircle
  8
cut
 62
256
370
-1
  6
ByLayer
 10
343.2603744475585472
 20
-209.7362193654368525
 30
0.0
 40
2.5
  0
CIRCLE
  5
E7
100
AcDbEntity
100
AcDbCircle
  8
cut
 62
256
370
-1
  6
ByLayer
 10
354.9510273838243393
 20
-206.9821955739445798
 30
0.0
 40
2.5
  0
CIRCLE
  5
E8
100
AcDbEntity
100
AcDbCircle
  8
cut
 62
256
370
-1
  6
ByLayer
 10
366.6319111551983951
 20
-204.2547448187959276
 30
0.0
 40
2.5
  0
CIRCLE
  5
E9
100
AcDbEntity
100
AcDbCircle
  8
cut
 62
256
370
-1
  6
ByLayer
 10
378.3228717394912906
 20
-201.4627510081433002
 30
0.0
 40
2.5
  0
CIRCLE
  5
EA
100
AcDbEntity
100
AcDbCircle
  8
cut
 62
256
370
-1
  6
ByLayer
 10
351.9655114662442088
 20
-246.7415849655963598
 30
0.0
 40
2.5
  0
CIRCLE
  5
EB
100
AcDbEntity
100
AcDbCircle
  8
cut
 62
256
370
-1
  6
ByLayer
 10
363.6361005185578961
 20
-243.9639046353249228
 30
0.0
 40
2.5
  0
CIRCLE
  5
EC
100
AcDbEntity
100
AcDbCircle
  8
cut
 62
256
370
-1
  6
ByLayer
 10
375.3341466271708669
 20
-241.2307518104485666
 30
0.0
 40
2.5
  0
CIRCLE
  5
ED
100
AcDbEntity
100
AcDbCircle
  8
cut
 62
256
370
-1
  6
ByLayer
 10
387.0436199952134757
 20
-238.4725796525635246
 30
0.0
 40
2.5
  0
CIRCLE
  5
EE
100
AcDbEntity
100
AcDbCircle
  8
cut
 62
256
370
-1
  6
ByLayer
 10
374.8420594158769745
 20
-221.6802122726651874
 30
0.0
 40
3.0
  0
CIRCLE
  5
EF
100
AcDbEntity
100
AcDbCircle
  8
cut
 62
256
370
-1
  6
ByLayer
 10
342.4129258086645109
 20
-228.529824308647278
 30
0.0
 40
11.0
  0
CIRCLE
  5
F0
100
AcDbEntity
100
AcDbCircle
  8
cut
 62
256
370
-1
  6
ByLayer
 10
350.7562699691997068
 20
-217.2866660237675092
 30
0.0
 40
1.6000000000000001
  0
CIRCLE
  5
F1
100
AcDbEntity
100
AcDbCircle
  8
cut
 62
256
370
-1
  6
ByLayer
 10
334.0695816481292013
 20
-239.7729825935272743
 30
0.0
 40
1.6000000000000001
  0
CIRCLE
  5
F2
100
AcDbEntity
100
AcDbCircle
  8
cut
 62
256
370
-1
  6
ByLayer
 10
437.0430507135918106
 20
-174.7198142221309354
 30
0.0
 40
2.5
  0
CIRCLE
  5
F3
100
AcDbEntity
100
AcDbCircle
  8
cut
 62
256
370
-1
  6
ByLayer
 10
446.7898864057575565
 20
-167.7016088168828105
 30
0.0
 40
2.5
  0
CIRCLE
  5
F4
100
AcDbEntity
100
AcDbCircle
  8
cut
 62
256
370
-1
  6
ByLayer
 10
456.5378656271860791
 20
-160.7116921935816549
 30
0.0
 40
2.5
  0
CIRCLE
  5
F5
100
AcDbEntity
100
AcDbCircle
  8
cut
 62
256
370
-1
  6
ByLayer
 10
466.2704550518079714
 20
-153.6582893329791091
 30
0.0
 40
2.5
  0
CIRCLE
  5
F6
100
AcDbEntity
100
AcDbCircle
  8
cut
 62
256
370
-1
  6
ByLayer
 10
459.2468889566562211
 20
-205.5770023796963528
 30
0.0
 40
2.5
  0
CIRCLE
  5
F7
100
AcDbEntity
100
AcDbCircle
  8
cut
 62
256
370
-1
  6
ByLayer
 10
468.9661350716379502
 20
-198.5446192984374534
 30
0.0
 40
2.5
  0
CIRCLE
  5
F8
100
AcDbEntity
100
AcDbCircle
  8
cut
 62
256
370
-1
  6
ByLayer
 10
478.7277881375565585
 20
-191.5428669074998993
 30
0.0
 40
2.5
  0
CIRCLE
  5
F9
100
AcDbEntity
100
AcDbCircle
  8
cut
 62
256
370
-1
  6
ByLayer
 10
488.4904241303438539
 20
-184.5136266440171653
 30
0.0
 40
2.5
  0
CIRCLE
  5
FA
100
AcDbEntity
100
AcDbCircle
  8
cut
 62
256
370
-1
  6
ByLayer
 10
470.7914912599230775
 20
-173.6688372020300335
 30
0.0
 40
3.0
  0
CIRCLE
  5
FB
100
AcDbEntity
100
AcDbCircle
  8
cut
 62
256
370
-1
  6
ByLayer
 10
443.4521115074443287
 20
-192.4071457251511674
 30
0.0
 40
11.0
  0
CIRCLE
  5
FC
100
AcDbEntity
100
AcDbCircle
  8
cut
 62
256
370
-1
  6
ByLayer
 10
446.857786006978472
 20
-178.8269623242089779
 30
0.0
 40
1.6000000000000001
  0
CIRCLE
  5
FD
100
AcDbEntity
100
AcDbCircle
  8
cut
 62
256
370
-1
  6
ByLayer
 10
440.0464370079102991
 20
-205.9873291260930159
 30
0.0
 40
1.6000000000000001
  0
ARC
  5
FE
100
AcDbEntity
  8
cut
 62
256
370
-1
  6
ByLayer
100
AcDbCircle
 10
503.6574669941302318
 20
-143.8726377734772086
 30
0.0
 40
10.0
100
AcDbArc
 50
295.528779365508683
 51
154.4712206344911181
  0
ARC
  5
FF
100
AcDbEntity
  8
cut
 62
256
370
-1
  6
ByLayer
100
AcDbCircle
 10
510.1219330881974656
 20
-157.4081716794102022
 30
0.0
 40
5.0
100
AcDbArc
 50
115.5287793655087256
 51
225.0000000000000853
  0
ARC
  5
100
100
AcDbEntity
  8
cut
 62
256
370
-1
  6
ByLayer
100
AcDbCircle
 10
490.1219330881974656
 20
-137.4081716794100885
 30
0.0
 40
5.0
100
AcDbArc
 50
224.9999999999999716
 51
334.4712206344913739
  0
LINE
  5
101
100
AcDbEntity
100
AcDbLine
  8
cut
 62
256
370
-1
  6
ByLayer
 10
97.6776695296637172
 20
-160.9437055853423431
 30
0.0
 11
90.0000000000000568
 21
-168.6213751150060034
 31
0.0
  0
LINE
  5
102
100
AcDbEntity
100
AcDbLine
  8
cut
 62
256
370
-1
  6
ByLayer
 10
125.3553390593274628
 20
-133.2660360556786259
 30
0.0
 11
117.677669529663703
 21
-140.9437055853423431
 31
0.0
  0
ARC
  5
103
100
AcDbEntity
  8
cut
 62
256
370
-1
  6
ByLayer
100
AcDbCircle
 10
302.1320343559643788
 20
43.5106592409582333
 30
0.0
 40
250.0000000000000284
100
AcDbArc
 50
224.9999999999999716
 51
314.9999999999999432
  0
LINE
  5
104
100
AcDbEntity
100
AcDbLine
  8
cut
 62
256
370
-1
  6
ByLayer
 10
478.9087296526010959
 20
-133.2660360556790238
 30
0.0
 11
486.5863991822649268
 21
-140.943705585342741
 31
0.0
  0
ARC
  5
105
100
AcDbEntity
  8
cut
 62
256
370
-1
  6
ByLayer
100
AcDbCircle
 10
302.1320343559643788
 20
43.5106592409582333
 30
0.0
 40
300.0000000000000568
100
AcDbArc
 50
224.9999999999999716
 51
314.9999999999999432
  0
LINE
  5
106
100
AcDbEntity
100
AcDbLine
  8
cut
 62
256
370
-1
  6
ByLayer
 10
506.5863991822646994
 20
-160.9437055853426273
 30
0.0
 11
514.2640687119283029
 21
-168.621375115006515
 31
0.0
  0
CIRCLE
  5
107
100
AcDbEntity
100
AcDbCircle
  8
cut
 62
256
370
-1
  6
ByLayer
 10
152.1415773567686927
 20
-233.9547416711659196
 30
0.0
 40
2.5
  0
CIRCLE
  5
108
100
AcDbEntity
100
AcDbCircle
  8
cut
 62
256
370
-1
  6
ByLayer
 10
162.3555062230141175
 20
-240.273892740384639
 30
0.0
 40
2.5
  0
CIRCLE
  5
109
100
AcDbEntity
100
AcDbCircle
  8
cut
 62
256
370
-1
  6
ByLayer
 10
172.5437372723223461
 20
-246.6049259410571324
 30
0.0
 40
2.5
  0
CIRCLE
  5
10A
100
AcDbEntity
100
AcDbCircle
  8
cut
 62
256
370
-1
  6
ByLayer
 10
182.7847325366041105
 20
-252.8974456922519209
 30
0.0
 40
2.5
  0
CIRCLE
  5
10B
100
AcDbEntity
100
AcDbCircle
  8
cut
 62
256
370
-1
  6
ByLayer
 10
132.1302938176793589
 20
-266.2769480443968177
 30
0.0
 40
2.5
  0
CIRCLE
  5
10C
100
AcDbEntity
100
AcDbCircle
  8
cut
 62
256
370
-1
  6
ByLayer
 10
142.3467630745152235
 20
-272.5651841062259564
 30
0.0
 40
2.5
  0
CIRCLE
  5
10D
100
AcDbEntity
100
AcDbCircle
  8
cut
 62
256
370
-1
  6
ByLayer
 10
152.5511617010375573
 20
-278.9043209397697183
 30
0.0
 40
2.5
  0
CIRCLE
  5
10E
100
AcDbEntity
100
AcDbCircle
  8
cut
 62
256
370
-1
  6
ByLayer
 10
162.7813319602245201
 20
-285.233846725915555
 30
0.0
 40
2.5
  0
CIRCLE
  5
10F
100
AcDbEntity
100
AcDbCircle
  8
cut
 62
256
370
-1
  6
ByLayer
 10
166.0275225800189673
 20
-264.7320436527062384
 30
0.0
 40
3.0
  0
CIRCLE
  5
110
100
AcDbEntity
100
AcDbCircle
  8
cut
 62
256
370
-1
  6
ByLayer
 10
138.2532551792143352
 20
-246.6445904901817414
 30
0.0
 40
11.0
  0
CIRCLE
  5
111
100
AcDbEntity
100
AcDbCircle
  8
cut
 62
256
370
-1
  6
ByLayer
 10
152.103003878094313
 20
-244.5941122586770291
 30
0.0
 40
1.6000000000000001
  0
CIRCLE
  5
112
100
AcDbEntity
100
AcDbCircle
  8
cut
 62
256
370
-1
  6
ByLayer
 10
124.403506480334471
 20
-248.6950687216864537
 30
0.0
 40
1.6000000000000001
  0
ARC
  5
113
100
AcDbEntity
  8
cut
 62
256
370
-1
  6
ByLayer
100
AcDbCircle
 10
114.7487373415292922
 20
-227.3254609547108487
 30
0.0
 40
10.0
100
AcDbArc
 50
205.5287793655087398
 51
64.4712190660087714
  0
ARC
  5
114
100
AcDbEntity
  8
cut
 62
256
370
-1
  6
ByLayer
100
AcDbCircle
 10
121.2132034355964549
 20
-213.7899270487780825
 30
0.0
 40
5.0
100
AcDbArc
 50
134.9999999999999716
 51
244.4712237714558967
  0
ARC
  5
115
100
AcDbEntity
  8
cut
 62
256
370
-1
  6
ByLayer
100
AcDbCircle
 10
101.2132034355965118
 20
-233.7899270487779688
 30
0.0
 40
5.0
100
AcDbArc
 50
25.5287793655087292
 51
135.0000000000000568
  0
CIRCLE
  5
116
100
AcDbEntity
100
AcDbCircle
  8
cut
 62
256
370
-1
  6
ByLayer
 10
243.2162812319108411
 20
-275.5087704870936705
 30
0.0
 40
2.5
  0
CIRCLE
  5
117
100
AcDbEntity
100
AcDbCircle
  8
cut
 62
256
370
-1
  6
ByLayer
 10
255.0709554787633522
 20
-277.438203466324012
 30
0.0
 40
2.5
  0
CIRCLE
  5
118
100
AcDbEntity
100
AcDbCircle
  8
cut
 62
256
370
-1
  6
ByLayer
 10
266.9064351333659602
 20
-279.3884482323967404
 30
0.0
 40
2.5
  0
CIRCLE
  5
119
100
AcDbEntity
100
AcDbCircle
  8
cut
 62
256
370
-1
  6
ByLayer
 10
278.7759241071931342
 20
-281.2829192198787496
 30
0.0
 40
2.5
  0
CIRCLE
  5
11A
100
AcDbEntity
100
AcDbCircle
  8
cut
 62
256
370
-1
  6
ByLayer
 10
237.0974388273871796
 20
-313.0285820716973149
 30
0.0
 40
2.5
  0
CIRCLE
  5
11B
100
AcDbEntity
100
AcDbCircle
  8
cut
 62
256
370
-1
  6
ByLayer
 10
248.9426294279713545
 20
-314.9284811429623687
 30
0.0
 40
2.5
  0
CIRCLE
  5
11C
100
AcDbEntity
100
AcDbCircle
  8
cut
 62
256
370
-1
  6
ByLayer
 10
260.7961471022940145
 20
-316.8800256256427019
 30
0.0
 40
2.5
  0
CIRCLE
  5
11D
100
AcDbEntity
100
AcDbCircle
  8
cut
 62
256
370
-1
  6
ByLayer
 10
272.6697966719480064
 20
-318.8128282815001739
 30
0.0
 40
2.5
  0
CIRCLE
  5
11E
100
AcDbEntity
100
AcDbCircle
  8
cut
 62
256
370
-1
  6
ByLayer
 10
267.8231853744774753
 20
-298.6293686740908697
 30
0.0
 40
3.0
  0
CIRCLE
  5
11F
100
AcDbEntity
100
AcDbCircle
  8
cut
 62
256
370
-1
  6
ByLayer
 10
235.2413395334007475
 20
-292.5474928823435903
 30
0.0
 40
11.0
  0
CIRCLE
  5
120
100
AcDbEntity
100
AcDbCircle
  8
cut
 62
256
370
-1
  6
ByLayer
 10
247.2521548390986652
 20
-285.353028642915092
 30
0.0
 40
1.6000000000000001
  0
CIRCLE
  5
121
100
AcDbEntity
100
AcDbCircle
  8
cut
 62
256
370
-1
  6
ByLayer
 10
223.2305242277030288
 20
-299.7419571217719749
 30
0.0
 40
1.6000000000000001
  0
CIRCLE
  5
122
100
AcDbEntity
100
AcDbCircle
  8
cut
 62
256
370
-1
  6
ByLayer
 10
343.2603744475585472
 20
-279.0469069229397974
 30
0.0
 40
2.5
  0
CIRCLE
  5
123
100
AcDbEntity
100
AcDbCircle
  8
cut
 62
256
370
-1
  6
ByLayer
 10
354.9510273838243393
 20
-276.2928831314475246
 30
0.0
 40
2.5
  0
CIRCLE
  5
124
100
AcDbEntity
100
AcDbCircle
  8
cut
 62
256
370
-1
  6
ByLayer
 10
366.6319111551983951
 20
-273.5654323762988724
 30
0.0
 40
2.5
  0
CIRCLE
  5
125
100
AcDbEntity
100
AcDbCircle
  8
cut
 62
256
370
-1
  6
ByLayer
 10
378.3228717394912906
 20
-270.7734385656463019
 30
0.0
 40
2.5
  0
CIRCLE
  5
126
100
AcDbEntity
100
AcDbCircle
  8
cut
 62
256
370
-1
  6
ByLayer
 10
351.9655114662442088
 20
-316.0522725230993046
 30
0.0
 40
2.5
  0
CIRCLE
  5
127
100
AcDbEntity
100
AcDbCircle
  8
cut
 62
256
370
-1
  6
ByLayer
 10
363.6361005185578961
 20
-313.2745921928278676
 30
0.0
 40
2.5
  0
CIRCLE
  5
128
100
AcDbEntity
100
AcDbCircle
  8
cut
 62
256
370
-1
  6
ByLayer
 10
375.3341466271708669
 20
-310.5414393679515115
 30
0.0
 40
2.5
  0
CIRCLE
  5
129
100
AcDbEntity
100
AcDbCircle
  8
cut
 62
256
370
-1
  6
ByLayer
 10
387.0436199952134757
 20
-307.7832672100664695
 30
0.0
 40
2.5
  0
CIRCLE
  5
12A
100
AcDbEntity
100
AcDbCircle
  8
cut
 62
256
370
-1
  6
ByLayer
 10
374.8420594158769745
 20
-290.9908998301681322
 30
0.0
 40
3.0
  0
CIRCLE
  5
12B
100
AcDbEntity
100
AcDbCircle
  8
cut
 62
256
370
-1
  6
ByLayer
 10
342.4129258086645109
 20
-297.8405118661502229
 30
0.0
 40
11.0
  0
CIRCLE
  5
12C
100
AcDbEntity
100
AcDbCircle
  8
cut
 62
256
370
-1
  6
ByLayer
 10
350.7562699691997068
 20
-286.597353581270454
 30
0.0
 40
1.6000000000000001
  0
CIRCLE
  5
12D
100
AcDbEntity
100
AcDbCircle
  8
cut
 62
256
370
-1
  6
ByLayer
 10
334.0695816481292013
 20
-309.0836701510302191
 30
0.0
 40
1.6000000000000001
  0
CIRCLE
  5
12E
100
AcDbEntity
100
AcDbCircle
  8
cut
 62
256
370
-1
  6
ByLayer
 10
437.0430507135918106
 20
-244.0305017796339087
 30
0.0
 40
2.5
  0
CIRCLE
  5
12F
100
AcDbEntity
100
AcDbCircle
  8
cut
 62
256
370
-1
  6
ByLayer
 10
446.7898864057575565
 20
-237.0122963743857838
 30
0.0
 40
2.5
  0
CIRCLE
  5
130
100
AcDbEntity
100
AcDbCircle
  8
cut
 62
256
370
-1
  6
ByLayer
 10
456.5378656271860791
 20
-230.0223797510846282
 30
0.0
 40
2.5
  0
CIRCLE
  5
131
100
AcDbEntity
100
AcDbCircle
  8
cut
 62
256
370
-1
  6
ByLayer
 10
466.2704550518079714
 20
-222.9689768904820824
 30
0.0
 40
2.5
  0
CIRCLE
  5
132
100
AcDbEntity
100
AcDbCircle
  8
cut
 62
256
370
-1
  6
ByLayer
 10
459.2468889566562211
 20
-274.8876899371992977
 30
0.0
 40
2.5
  0
CIRCLE
  5
133
100
AcDbEntity
100
AcDbCircle
  8
cut
 62
256
370
-1
  6
ByLayer
 10
468.9661350716379502
 20
-267.8553068559403982
 30
0.0
 40
2.5
  0
CIRCLE
  5
134
100
AcDbEntity
100
AcDbCircle
  8
cut
 62
256
370
-1
  6
ByLayer
 10
478.7277881375565585
 20
-260.8535544650028442
 30
0.0
 40
2.5
  0
CIRCLE
  5
135
100
AcDbEntity
100
AcDbCircle
  8
cut
 62
256
370
-1
  6
ByLayer
 10
488.4904241303438539
 20
-253.8243142015201386
 30
0.0
 40
2.5
  0
CIRCLE
  5
136
100
AcDbEntity
100
AcDbCircle
  8
cut
 62
256
370
-1
  6
ByLayer
 10
470.7914912599230775
 20
-242.9795247595330068
 30
0.0
 40
3.0
  0
CIRCLE
  5
137
100
AcDbEntity
100
AcDbCircle
  8
cut
 62
256
370
-1
  6
ByLayer
 10
443.4521115074443287
 20
-261.7178332826541691
 30
0.0
 40
11.0
  0
CIRCLE
  5
138
100
AcDbEntity
100
AcDbCircle
  8
cut
 62
256
370
-1
  6
ByLayer
 10
446.857786006978472
 20
-248.1376498817119511
 30
0.0
 40
1.6000000000000001
  0
CIRCLE
  5
139
100
AcDbEntity
100
AcDbCircle
  8
cut
 62
256
370
-1
  6
ByLayer
 10
440.0464370079102991
 20
-275.2980166835959608
 30
0.0
 40
1.6000000000000001
  0
ARC
  5
13A
100
AcDbEntity
  8
cut
 62
256
370
-1
  6
ByLayer
100
AcDbCircle
 10
503.6574669941302318
 20
-213.1833253309801819
 30
0.0
 40
10.0
100
AcDbArc
 50
295.528779365508683
 51
154.4712206344911181
  0
ARC
  5
13B
100
AcDbEntity
  8
cut
 62
256
370
-1
  6
ByLayer
100
AcDbCircle
 10
510.1219330881974656
 20
-226.7188592369131754
 30
0.0
 40
5.0
100
AcDbArc
 50
115.5287793655087256
 51
225.0000000000000853
  0
ARC
  5
13C
100
AcDbEntity
  8
cut
 62
256
370
-1
  6
ByLayer
100
AcDbCircle
 10
490.1219330881974656
 20
-206.7188592369130617
 30
0.0
 40
5.0
100
AcDbArc
 50
224.9999999999999716
 51
334.4712206344913739
  0
LINE
  5
13D
100
AcDbEntity
100
AcDbLine
  8
cut
 62
256
370
-1
  6
ByLayer
 10
97.6776695296637172
 20
-230.2543931428453163
 30
0.0
 11
90.0000000000000568
 21
-237.9320626725089767
 31
0.0
  0
LINE
  5
13E
100
AcDbEntity
100
AcDbLine
  8
cut
 62
256
370
-1
  6
ByLayer
 10
125.3553390593274628
 20
-202.5767236131815991
 30
0.0
 11
117.677669529663703
 21
-210.2543931428453163
 31
0.0
  0
ARC
  5
13F
100
AcDbEntity
  8
cut
 62
256
370
-1
  6
ByLayer
100
AcDbCircle
 10
302.1320343559643788
 20
-25.8000283165447399
 30
0.0
 40
250.0000000000000284
100
AcDbArc
 50
224.9999999999999716
 51
314.9999999999999432
  0
LINE
  5
140
100
AcDbEntity
100
AcDbLine
  8
cut
 62
256
370
-1
  6
ByLayer
 10
478.9087296526010959
 20
-202.5767236131819971
 30
0.0
 11
486.5863991822649268
 21
-210.2543931428457142
 31
0.0
  0
ARC
  5
141
100
AcDbEntity
  8
cut
 62
256
370
-1
  6
ByLayer
100
AcDbCircle
 10
302.1320343559643788
 20
-25.8000283165447399
 30
0.0
 40
300.0000000000000568
100
AcDbArc
 50
224.9999999999999716
 51
314.9999999999999432
  0
LINE
  5
142
100
AcDbEntity
100
AcDbLine
  8
cut
 62
256
370
-1
  6
ByLayer
 10
506.5863991822646994
 20
-230.2543931428456006
 30
0.0
 11
514.2640687119283029
 21
-237.9320626725094883
 31
0.0
  0
CIRCLE
  5
143
100
AcDbEntity
100
AcDbCircle
  8
cut
 62
256
370
-1
  6
ByLayer
 10
146.7862382974412299
 20
-311.3780180579843204
 30
0.0
 40
2.5
  0
CIRCLE
  5
144
100
AcDbEntity
100
AcDbCircle
  8
cut
 62
256
370
-1
  6
ByLayer
 10
157.0001671636866547
 20
-317.6971691272030398
 30
0.0
 40
2.5
  0
CIRCLE
  5
145
100
AcDbEntity
100
AcDbCircle
  8
cut
 62
256
370
-1
  6
ByLayer
 10
167.1883982129948834
 20
-324.0282023278755332
 30
0.0
 40
2.5
  0
CIRCLE
  5
146
100
AcDbEntity
100
AcDbCircle
  8
cut
 62
256
370
-1
  6
ByLayer
 10
177.4293934772766477
 20
-330.3207220790703218
 30
0.0
 40
2.5
  0
CIRCLE
  5
147
100
AcDbEntity
100
AcDbCircle
  8
cut
 62
256
370
-1
  6
ByLayer
 10
126.7749547583518961
 20
-343.700224431215247
 30
0.0
 40
2.5
  0
CIRCLE
  5
148
100
AcDbEntity
100
AcDbCircle
  8
cut
 62
256
370
-1
  6
ByLayer
 10
136.9914240151877607
 20
-349.9884604930443857
 30
0.0
 40
2.5
  0
CIRCLE
  5
149
100
AcDbEntity
100
AcDbCircle
  8
cut
 62
256
370
-1
  6
ByLayer
 10
147.1958226417100946
 20
-356.3275973265881476
 30
0.0
 40
2.5
  0
CIRCLE
  5
14A
100
AcDbEntity
100
AcDbCircle
  8
cut
 62
256
370
-1
  6
ByLayer
 10
157.4259929008970573
 20
-362.6571231127339843
 30
0.0
 40
2.5
  0
CIRCLE
  5
14B
100
AcDbEntity
100
AcDbCircle
  8
cut
 62
256
370
-1
  6
ByLayer
 10
160.6721835206915046
 20
-342.1553200395246677
 30
0.0
 40
3.0
  0
CIRCLE
  5
14C
100
AcDbEntity
100
AcDbCircle
  8
cut
 62
256
370
-1
  6
ByLayer
 10
132.8979161198868724
 20
-324.0678668770001423
 30
0.0
 40
11.0
  0
CIRCLE
  5
14D
100
AcDbEntity
100
AcDbCircle
  8
cut
 62
256
370
-1
  6
ByLayer
 10
146.7476648187668502
 20
-322.01738864549543
 30
0.0
 40
1.6000000000000001
  0
CIRCLE
  5
14E
100
AcDbEntity
100
AcDbCircle
  8
cut
 62
256
370
-1
  6
ByLayer
 10
119.0481674210070082
 20
-326.1183451085048546
 30
0.0
 40
1.6000000000000001
  0
ARC
  5
14F
100
AcDbEntity
  8
cut
 62
256
370
-1
  6
ByLayer
100
AcDbCircle
 10
109.3933982822018294
 20
-304.7487373415292495
 30
0.0
 40
10.0
100
AcDbArc
 50
205.5287793655087398
 51
64.4712190660087714
  0
ARC
  5
150
100
AcDbEntity
  8
cut
 62
256
370
-1
  6
ByLayer
100
AcDbCircle
 10
115.8578643762689921
 20
-291.2132034355964834
 30
0.0
 40
5.0
100
AcDbArc
 50
134.9999999999999716
 51
244.4712237714558967
  0
ARC
  5
151
100
AcDbEntity
  8
cut
 62
256
370
-1
  6
ByLayer
100
AcDbCircle
 10
95.857864376269049
 20
-311.2132034355963697
 30
0.0
 40
5.0
100
AcDbArc
 50
25.5287793655087292
 51
135.0000000000000568
  0
CIRCLE
  5
152
100
AcDbEntity
100
AcDbCircle
  8
cut
 62
256
370
-1
  6
ByLayer
 10
237.8609421725833784
 20
-352.9320468739120429
 30
0.0
 40
2.5
  0
CIRCLE
  5
153
100
AcDbEntity
100
AcDbCircle
  8
cut
 62
256
370
-1
  6
ByLayer
 10
249.7156164194358894
 20
-354.8614798531424412
 30
0.0
 40
2.5
  0
CIRCLE
  5
154
100
AcDbEntity
100
AcDbCircle
  8
cut
 62
256
370
-1
  6
ByLayer
 10
261.5510960740384689
 20
-356.8117246192151697
 30
0.0
 40
2.5
  0
CIRCLE
  5
155
100
AcDbEntity
100
AcDbCircle
  8
cut
 62
256
370
-1
  6
ByLayer
 10
273.420585047865643
 20
-358.706195606697122
 30
0.0
 40
2.5
  0
CIRCLE
  5
156
100
AcDbEntity
100
AcDbCircle
  8
cut
 62
256
370
-1
  6
ByLayer
 10
231.7420997680597168
 20
-390.4518584585157441
 30
0.0
 40
2.5
  0
CIRCLE
  5
157
100
AcDbEntity
100
AcDbCircle
  8
cut
 62
256
370
-1
  6
ByLayer
 10
243.5872903686438917
 20
-392.351757529780798
 30
0.0
 40
2.5
  0
CIRCLE
  5
158
100
AcDbEntity
100
AcDbCircle
  8
cut
 62
256
370
-1
  6
ByLayer
 10
255.4408080429665517
 20
-394.3033020124611312
 30
0.0
 40
2.5
  0
CIRCLE
  5
159
100
AcDbEntity
100
AcDbCircle
  8
cut
 62
256
370
-1
  6
ByLayer
 10
267.314457612620572
 20
-396.2361046683186032
 30
0.0
 40
2.5
  0
CIRCLE
  5
15A
100
AcDbEntity
100
AcDbCircle
  8
cut
 62
256
370
-1
  6
ByLayer
 10
262.4678463151500409
 20
-376.052645060909299
 30
0.0
 40
3.0
  0
CIRCLE
  5
15B
100
AcDbEntity
100
AcDbCircle
  8
cut
 62
256
370
-1
  6
ByLayer
 10
229.8860004740732847
 20
-369.9707692691620196
 30
0.0
 40
11.0
  0
CIRCLE
  5
15C
100
AcDbEntity
100
AcDbCircle
  8
cut
 62
256
370
-1
  6
ByLayer
 10
241.8968157797712024
 20
-362.7763050297335212
 30
0.0
 40
1.6000000000000001
  0
CIRCLE
  5
15D
100
AcDbEntity
100
AcDbCircle
  8
cut
 62
256
370
-1
  6
ByLayer
 10
217.875185168375566
 20
-377.1652335085904042
 30
0.0
 40
1.6000000000000001
  0
CIRCLE
  5
15E
100
AcDbEntity
100
AcDbCircle
  8
cut
 62
256
370
-1
  6
ByLayer
 10
337.9050353882311128
 20
-356.4701833097582266
 30
0.0
 40
2.5
  0
CIRCLE
  5
15F
100
AcDbEntity
100
AcDbCircle
  8
cut
 62
256
370
-1
  6
ByLayer
 10
349.5956883244969049
 20
-353.7161595182659539
 30
0.0
 40
2.5
  0
CIRCLE
  5
160
100
AcDbEntity
100
AcDbCircle
  8
cut
 62
256
370
-1
  6
ByLayer
 10
361.2765720958709608
 20
-350.9887087631173017
 30
0.0
 40
2.5
  0
CIRCLE
  5
161
100
AcDbEntity
100
AcDbCircle
  8
cut
 62
256
370
-1
  6
ByLayer
 10
372.9675326801637993
 20
-348.1967149524646743
 30
0.0
 40
2.5
  0
CIRCLE
  5
162
100
AcDbEntity
100
AcDbCircle
  8
cut
 62
256
370
-1
  6
ByLayer
 10
346.6101724069167176
 20
-393.4755489099177339
 30
0.0
 40
2.5
  0
CIRCLE
  5
163
100
AcDbEntity
100
AcDbCircle
  8
cut
 62
256
370
-1
  6
ByLayer
 10
358.2807614592304617
 20
-390.6978685796462969
 30
0.0
 40
2.5
  0
CIRCLE
  5
164
100
AcDbEntity
100
AcDbCircle
  8
cut
 62
256
370
-1
  6
ByLayer
 10
369.9788075678434325
 20
-387.9647157547699408
 30
0.0
 40
2.5
  0
CIRCLE
  5
165
100
AcDbEntity
100
AcDbCircle
  8
cut
 62
256
370
-1
  6
ByLayer
 10
381.6882809358860413
 20
-385.2065435968848988
 30
0.0
 40
2.5
  0
CIRCLE
  5
166
100
AcDbEntity
100
AcDbCircle
  8
cut
 62
256
370
-1
  6
ByLayer
 10
369.4867203565495402
 20
-368.4141762169865615
 30
0.0
 40
3.0
  0
CIRCLE
  5
167
100
AcDbEntity
100
AcDbCircle
  8
cut
 62
256
370
-1
  6
ByLayer
 10
337.0575867493370197
 20
-375.2637882529686522
 30
0.0
 40
11.0
  0
CIRCLE
  5
168
100
AcDbEntity
100
AcDbCircle
  8
cut
 62
256
370
-1
  6
ByLayer
 10
345.4009309098722724
 20
-364.0206299680888833
 30
0.0
 40
1.6000000000000001
  0
CIRCLE
  5
169
100
AcDbEntity
100
AcDbCircle
  8
cut
 62
256
370
-1
  6
ByLayer
 10
328.7142425888017669
 20
-386.5069465378486484
 30
0.0
 40
1.6000000000000001
  0
CIRCLE
  5
16A
100
AcDbEntity
100
AcDbCircle
  8
cut
 62
256
370
-1
  6
ByLayer
 10
431.6877116542643762
 20
-321.4537781664523095
 30
0.0
 40
2.5
  0
CIRCLE
  5
16B
100
AcDbEntity
100
AcDbCircle
  8
cut
 62
256
370
-1
  6
ByLayer
 10
441.4345473464301222
 20
-314.4355727612041846
 30
0.0
 40
2.5
  0
CIRCLE
  5
16C
100
AcDbEntity
100
AcDbCircle
  8
cut
 62
256
370
-1
  6
ByLayer
 10
451.1825265678586447
 20
-307.445656137903029
 30
0.0
 40
2.5
  0
CIRCLE
  5
16D
100
AcDbEntity
100
AcDbCircle
  8
cut
 62
256
370
-1
  6
ByLayer
 10
460.915115992480537
 20
-300.3922532773004832
 30
0.0
 40
2.5
  0
CIRCLE
  5
16E
100
AcDbEntity
100
AcDbCircle
  8
cut
 62
256
370
-1
  6
ByLayer
 10
453.8915498973287868
 20
-352.3109663240177269
 30
0.0
 40
2.5
  0
CIRCLE
  5
16F
100
AcDbEntity
100
AcDbCircle
  8
cut
 62
256
370
-1
  6
ByLayer
 10
463.6107960123105158
 20
-345.2785832427588275
 30
0.0
 40
2.5
  0
CIRCLE
  5
170
100
AcDbEntity
100
AcDbCircle
  8
cut
 62
256
370
-1
  6
ByLayer
 10
473.3724490782291241
 20
-338.2768308518212734
 30
0.0
 40
2.5
  0
CIRCLE
  5
171
100
AcDbEntity
100
AcDbCircle
  8
cut
 62
256
370
-1
  6
ByLayer
 10
483.1350850710164195
 20
-331.2475905883385394
 30
0.0
 40
2.5
  0
CIRCLE
  5
172
100
AcDbEntity
100
AcDbCircle
  8
cut
 62
256
370
-1
  6
ByLayer
 10
465.4361522005956431
 20
-320.4028011463514076
 30
0.0
 40
3.0
  0
CIRCLE
  5
173
100
AcDbEntity
100
AcDbCircle
  8
cut
 62
256
370
-1
  6
ByLayer
 10
438.0967724481168943
 20
-339.1411096694725416
 30
0.0
 40
11.0
  0
CIRCLE
  5
174
100
AcDbEntity
100
AcDbCircle
  8
cut
 62
256
370
-1
  6
ByLayer
 10
441.5024469476510376
 20
-325.560926268530352
 30
0.0
 40
1.6000000000000001
  0
CIRCLE
  5
175
100
AcDbEntity
100
AcDbCircle
  8
cut
 62
256
370
-1
  6
ByLayer
 10
434.6910979485828648
 20
-352.7212930704143901
 30
0.0
 40
1.6000000000000001
  0
ARC
  5
176
100
AcDbEntity
  8
cut
 62
256
370
-1
  6
ByLayer
100
AcDbCircle
 10
498.3021279348027974
 20
-290.6066017177985827
 30
0.0
 40
10.0
100
AcDbArc
 50
295.528779365508683
 51
154.4712206344911181
  0
ARC
  5
177
100
AcDbEntity
  8
cut
 62
256
370
-1
  6
ByLayer
100
AcDbCircle
 10
504.7665940288700313
 20
-304.1421356237315763
 30
0.0
 40
5.0
100
AcDbArc
 50
115.5287793655087256
 51
225.0000000000000853
  0
ARC
  5
178
100
AcDbEntity
  8
cut
 62
256
370
-1
  6
ByLayer
100
AcDbCircle
 10
484.7665940288700313
 20
-284.1421356237314626
 30
0.0
 40
5.0
100
AcDbArc
 50
224.9999999999999716
 51
334.4712206344913739
  0
LINE
  5
179
100
AcDbEntity
100
AcDbLine
  8
cut
 62
256
370
-1
  6
ByLayer
 10
92.3223304703362544
 20
-307.6776695296637172
 30
0.0
 11
84.6446609406725941
 21
-315.3553390593273775
 31
0.0
  0
LINE
  5
17A
100
AcDbEntity
100
AcDbLine
  8
cut
 62
256
370
-1
  6
ByLayer
 10
120.0
 20
-280.0
 30
0.0
 11
112.3223304703362402
 21
-287.6776695296637172
 31
0.0
  0
ARC
  5
17B
100
AcDbEntity
  8
cut
 62
256
370
-1
  6
ByLayer
100
AcDbCircle
 10
296.7766952966369445
 20
-103.2233047033631408
 30
0.0
 40
250.0000000000000284
100
AcDbArc
 50
224.9999999999999716
 51
314.9999999999999432
  0
LINE
  5
17C
100
AcDbEntity
100
AcDbLine
  8
cut
 62
256
370
-1
  6
ByLayer
 10
473.5533905932736616
 20
-280.0000000000003979
 30
0.0
 11
481.2310601229374925
 21
-287.6776695296641151
 31
0.0
  0
ARC
  5
17D
100
AcDbEntity
  8
cut
 62
256
370
-1
  6
ByLayer
100
AcDbCircle
 10
296.7766952966369445
 20
-103.2233047033631408
 30
0.0
 40
300.0000000000000568
100
AcDbArc
 50
224.9999999999999716
 51
314.9999999999999432
  0
LINE
  5
17E
100
AcDbEntity
100
AcDbLine
  8
cut
 62
256
370
-1
  6
ByLayer
 10
501.2310601229372651
 20
-307.6776695296640014
 30
0.0
 11
508.9087296526008686
 21
-315.3553390593278891
 31
0.0
  0
LINE
  5
17F
100
AcDbEntity
100
AcDbLine
  8
frame
 62
256
370
-1
  6
ByLayer
 10
120.0
 20
-280.0
 30
0.0
 11
473.5533905932736616
 21
-280.0000000000003979
 31
0.0
  0
ARC
  5
180
100
AcDbEntity
  8
frame
 62
256
370
-1
  6
ByLayer
100
AcDbCircle
 10
296.7766952966369445
 20
-103.2233047033631408
 30
0.0
 40
303.0000000000000568
100
AcDbArc
 50
224.9999999999999716
 51
314.9999999999999432
  0
LINE
  5
181
100
AcDbEntity
100
AcDbLine
  8
frame
 62
256
370
-1
  6
ByLayer
 10
411.5817250061639925
 20
-380.387164456749133
 30
0.0
 11
392.4475533879093518
 21
-334.1931878311849005
 31
0.0
  0
LINE
  5
182
100
AcDbEntity
100
AcDbLine
  8
frame
 62
256
370
-1
  6
ByLayer
 10
296.7766952966368308
 20
-403.2233047033631692
 30
0.0
 11
296.7766952966368308
 21
-353.2233047033631692
 31
0.0
  0
CIRCLE
  5
183
100
AcDbEntity
100
AcDbCircle
  8
cut
 62
256
370
-1
  6
ByLayer
 10
146.7862382974412299
 20
-380.6887056154872653
 30
0.0
 40
2.5
  0
CIRCLE
  5
184
100
AcDbEntity
100
AcDbCircle
  8
cut
 62
256
370
-1
  6
ByLayer
 10
157.0001671636866547
 20
-387.0078566847059847
 30
0.0
 40
2.5
  0
CIRCLE
  5
185
100
AcDbEntity
100
AcDbCircle
  8
cut
 62
256
370
-1
  6
ByLayer
 10
167.1883982129948834
 20
-393.3388898853785349
 30
0.0
 40
2.5
  0
CIRCLE
  5
186
100
AcDbEntity
100
AcDbCircle
  8
cut
 62
256
370
-1
  6
ByLayer
 10
177.4293934772766477
 20
-399.6314096365732667
 30
0.0
 40
2.5
  0
CIRCLE
  5
187
100
AcDbEntity
100
AcDbCircle
  8
cut
 62
256
370
-1
  6
ByLayer
 10
126.7749547583518961
 20
-413.0109119887182487
 30
0.0
 40
2.5
  0
CIRCLE
  5
188
100
AcDbEntity
100
AcDbCircle
  8
cut
 62
256
370
-1
  6
ByLayer
 10
136.9914240151877607
 20
-419.2991480505473874
 30
0.0
 40
2.5
  0
CIRCLE
  5
189
100
AcDbEntity
100
AcDbCircle
  8
cut
 62
256
370
-1
  6
ByLayer
 10
147.1958226417100946
 20
-425.6382848840911493
 30
0.0
 40
2.5
  0
CIRCLE
  5
18A
100
AcDbEntity
100
AcDbCircle
  8
cut
 62
256
370
-1
  6
ByLayer
 10
157.4259929008970573
 20
-431.967810670236986
 30
0.0
 40
2.5
  0
CIRCLE
  5
18B
100
AcDbEntity
100
AcDbCircle
  8
cut
 62
256
370
-1
  6
ByLayer
 10
160.6721835206915046
 20
-411.4660075970276694
 30
0.0
 40
3.0
  0
CIRCLE
  5
18C
100
AcDbEntity
100
AcDbCircle
  8
cut
 62
256
370
-1
  6
ByLayer
 10
132.8979161198868724
 20
-393.378554434503144
 30
0.0
 40
11.0
  0
CIRCLE
  5
18D
100
AcDbEntity
100
AcDbCircle
  8
cut
 62
256
370
-1
  6
ByLayer
 10
146.7476648187668502
 20
-391.3280762029984317
 30
0.0
 40
1.6000000000000001
  0
CIRCLE
  5
18E
100
AcDbEntity
100
AcDbCircle
  8
cut
 62
256
370
-1
  6
ByLayer
 10
119.0481674210070082
 20
-395.4290326660078563
 30
0.0
 40
1.6000000000000001
  0
ARC
  5
18F
100
AcDbEntity
  8
cut
 62
256
370
-1
  6
ByLayer
100
AcDbCircle
 10
109.3933982822018294
 20
-374.0594248990322512
 30
0.0
 40
10.0
100
AcDbArc
 50
205.5287793655087398
 51
64.4712190660087714
  0
ARC
  5
190
100
AcDbEntity
  8
cut
 62
256
370
-1
  6
ByLayer
100
AcDbCircle
 10
115.8578643762689921
 20
-360.5238909930994851
 30
0.0
 40
5.0
100
AcDbArc
 50
134.9999999999999716
 51
244.4712237714558967
  0
ARC
  5
191
100
AcDbEntity
  8
cut
 62
256
370
-1
  6
ByLayer
100
AcDbCircle
 10
95.857864376269049
 20
-380.5238909930993714
 30
0.0
 40
5.0
100
AcDbArc
 50
25.5287793655087292
 51
135.0000000000000568
  0
CIRCLE
  5
192
100
AcDbEntity
100
AcDbCircle
  8
cut
 62
256
370
-1
  6
ByLayer
 10
237.8609421725833784
 20
-422.2427344314149877
 30
0.0
 40
2.5
  0
CIRCLE
  5
193
100
AcDbEntity
100
AcDbCircle
  8
cut
 62
256
370
-1
  6
ByLayer
 10
249.7156164194358894
 20
-424.1721674106454429
 30
0.0
 40
2.5
  0
CIRCLE
  5
194
100
AcDbEntity
100
AcDbCircle
  8
cut
 62
256
370
-1
  6
ByLayer
 10
261.5510960740384689
 20
-426.1224121767181714
 30
0.0
 40
2.5
  0
CIRCLE
  5
195
100
AcDbEntity
100
AcDbCircle
  8
cut
 62
256
370
-1
  6
ByLayer
 10
273.420585047865643
 20
-428.0168831642000669
 30
0.0
 40
2.5
  0
CIRCLE
  5
196
100
AcDbEntity
100
AcDbCircle
  8
cut
 62
256
370
-1
  6
ByLayer
 10
231.7420997680597168
 20
-459.7625460160187458
 30
0.0
 40
2.5
  0
CIRCLE
  5
197
100
AcDbEntity
100
AcDbCircle
  8
cut
 62
256
370
-1
  6
ByLayer
 10
243.5872903686438917
 20
-461.6624450872837997
 30
0.0
 40
2.5
  0
CIRCLE
  5
198
100
AcDbEntity
100
AcDbCircle
  8
cut
 62
256
370
-1
  6
ByLayer
 10
255.4408080429665517
 20
-463.6139895699641329
 30
0.0
 40
2.5
  0
CIRCLE
  5
199
100
AcDbEntity
100
AcDbCircle
  8
cut
 62
256
370
-1
  6
ByLayer
 10
267.314457612620572
 20
-465.5467922258216049
 30
0.0
 40
2.5
  0
CIRCLE
  5
19A
100
AcDbEntity
100
AcDbCircle
  8
cut
 62
256
370
-1
  6
ByLayer
 10
262.4678463151500409
 20
-445.3633326184123007
 30
0.0
 40
3.0
  0
CIRCLE
  5
19B
100
AcDbEntity
100
AcDbCircle
  8
cut
 62
256
370
-1
  6
ByLayer
 10
229.8860004740732847
 20
-439.2814568266650213
 30
0.0
 40
11.0
  0
CIRCLE
  5
19C
100
AcDbEntity
100
AcDbCircle
  8
cut
 62
256
370
-1
  6
ByLayer
 10
241.8968157797712024
 20
-432.0869925872365229
 30
0.0
 40
1.6000000000000001
  0
CIRCLE
  5
19D
100
AcDbEntity
100
AcDbCircle
  8
cut
 62
256
370
-1
  6
ByLayer
 10
217.875185168375566
 20
-446.4759210660934059
 30
0.0
 40
1.6000000000000001
  0
CIRCLE
  5
19E
100
AcDbEntity
100
AcDbCircle
  8
cut
 62
256
370
-1
  6
ByLayer
 10
337.9050353882311128
 20
-425.7808708672612283
 30
0.0
 40
2.5
  0
CIRCLE
  5
19F
100
AcDbEntity
100
AcDbCircle
  8
cut
 62
256
370
-1
  6
ByLayer
 10
349.5956883244969049
 20
-423.0268470757689556
 30
0.0
 40
2.5
  0
CIRCLE
  5
1A0
100
AcDbEntity
100
AcDbCircle
  8
cut
 62
256
370
-1
  6
ByLayer
 10
361.2765720958709608
 20
-420.2993963206203034
 30
0.0
 40
2.5
  0
CIRCLE
  5
1A1
100
AcDbEntity
100
AcDbCircle
  8
cut
 62
256
370
-1
  6
ByLayer
 10
372.9675326801637993
 20
-417.5074025099676192
 30
0.0
 40
2.5
  0
CIRCLE
  5
1A2
100
AcDbEntity
100
AcDbCircle
  8
cut
 62
256
370
-1
  6
ByLayer
 10
346.6101724069167176
 20
-462.7862364674207356
 30
0.0
 40
2.5
  0
CIRCLE
  5
1A3
100
AcDbEntity
100
AcDbCircle
  8
cut
 62
256
370
-1
  6
ByLayer
 10
358.2807614592304617
 20
-460.0085561371492986
 30
0.0
 40
2.5
  0
CIRCLE
  5
1A4
100
AcDbEntity
100
AcDbCircle
  8
cut
 62
256
370
-1
  6
ByLayer
 10
369.9788075678434325
 20
-457.2754033122729425
 30
0.0
 40
2.5
  0
CIRCLE
  5
1A5
100
AcDbEntity
100
AcDbCircle
  8
cut
 62
256
370
-1
  6
ByLayer
 10
381.6882809358860413
 20
-454.5172311543879005
 30
0.0
 40
2.5
  0
CIRCLE
  5
1A6
100
AcDbEntity
100
AcDbCircle
  8
cut
 62
256
370
-1
  6
ByLayer
 10
369.4867203565495402
 20
-437.7248637744895632
 30
0.0
 40
3.0
  0
CIRCLE
  5
1A7
100
AcDbEntity
100
AcDbCircle
  8
cut
 62
256
370
-1
  6
ByLayer
 10
337.0575867493370197
 20
-444.5744758104716539
 30
0.0
 40
11.0
  0
CIRCLE
  5
1A8
100
AcDbEntity
100
AcDbCircle
  8
cut
 62
256
370
-1
  6
ByLayer
 10
345.4009309098722724
 20
-433.331317525591885
 30
0.0
 40
1.6000000000000001
  0
CIRCLE
  5
1A9
100
AcDbEntity
100
AcDbCircle
  8
cut
 62
256
370
-1
  6
ByLayer
 10
328.7142425888017669
 20
-455.8176340953516501
 30
0.0
 40
1.6000000000000001
  0
CIRCLE
  5
1AA
100
AcDbEntity
100
AcDbCircle
  8
cut
 62
256
370
-1
  6
ByLayer
 10
431.6877116542643762
 20
-390.7644657239552544
 30
0.0
 40
2.5
  0
CIRCLE
  5
1AB
100
AcDbEntity
100
AcDbCircle
  8
cut
 62
256
370
-1
  6
ByLayer
 10
441.4345473464301222
 20
-383.7462603187071863
 30
0.0
 40
2.5
  0
CIRCLE
  5
1AC
100
AcDbEntity
100
AcDbCircle
  8
cut
 62
256
370
-1
  6
ByLayer
 10
451.1825265678586447
 20
-376.7563436954060307
 30
0.0
 40
2.5
  0
CIRCLE
  5
1AD
100
AcDbEntity
100
AcDbCircle
  8
cut
 62
256
370
-1
  6
ByLayer
 10
460.915115992480537
 20
-369.7029408348034849
 30
0.0
 40
2.5
  0
CIRCLE
  5
1AE
100
AcDbEntity
100
AcDbCircle
  8
cut
 62
256
370
-1
  6
ByLayer
 10
453.8915498973287868
 20
-421.6216538815207286
 30
0.0
 40
2.5
  0
CIRCLE
  5
1AF
100
AcDbEntity
100
AcDbCircle
  8
cut
 62
256
370
-1
  6
ByLayer
 10
463.6107960123105158
 20
-414.5892708002618292
 30
0.0
 40
2.5
  0
CIRCLE
  5
1B0
100
AcDbEntity
100
AcDbCircle
  8
cut
 62
256
370
-1
  6
ByLayer
 10
473.3724490782291241
 20
-407.5875184093242751
 30
0.0
 40
2.5
  0
CIRCLE
  5
1B1
100
AcDbEntity
100
AcDbCircle
  8
cut
 62
256
370
-1
  6
ByLayer
 10
483.1350850710164195
 20
-400.5582781458415411
 30
0.0
 40
2.5
  0
CIRCLE
  5
1B2
100
AcDbEntity
100
AcDbCircle
  8
cut
 62
256
370
-1
  6
ByLayer
 10
465.4361522005956431
 20
-389.7134887038544093
 30
0.0
 40
3.0
  0
CIRCLE
  5
1B3
100
AcDbEntity
100
AcDbCircle
  8
cut
 62
256
370
-1
  6
ByLayer
 10
438.0967724481168943
 20
-408.4517972269754864
 30
0.0
 40
11.0
  0
CIRCLE
  5
1B4
100
AcDbEntity
100
AcDbCircle
  8
cut
 62
256
370
-1
  6
ByLayer
 10
441.5024469476510376
 20
-394.8716138260333537
 30
0.0
 40
1.6000000000000001
  0
CIRCLE
  5
1B5
100
AcDbEntity
100
AcDbCircle
  8
cut
 62
256
370
-1
  6
ByLayer
 10
434.6910979485828648
 20
-422.0319806279173918
 30
0.0
 40
1.6000000000000001
  0
ARC
  5
1B6
100
AcDbEntity
  8
cut
 62
256
370
-1
  6
ByLayer
100
AcDbCircle
 10
498.3021279348027974
 20
-359.9172892753015276
 30
0.0
 40
10.0
100
AcDbArc
 50
295.528779365508683
 51
154.4712206344911181
  0
ARC
  5
1B7
100
AcDbEntity
  8
cut
 62
256
370
-1
  6
ByLayer
100
AcDbCircle
 10
504.7665940288700313
 20
-373.4528231812345211
 30
0.0
 40
5.0
100
AcDbArc
 50
115.5287793655087256
 51
225.0000000000000853
  0
ARC
  5
1B8
100
AcDbEntity
  8
cut
 62
256
370
-1
  6
ByLayer
100
AcDbCircle
 10
484.7665940288700313
 20
-353.4528231812344075
 30
0.0
 40
5.0
100
AcDbArc
 50
224.9999999999999716
 51
334.4712206344913739
  0
LINE
  5
1B9
100
AcDbEntity
100
AcDbLine
  8
cut
 62
256
370
-1
  6
ByLayer
 10
92.3223304703362544
 20
-376.9883570871667189
 30
0.0
 11
84.6446609406725941
 21
-384.6660266168303224
 31
0.0
  0
LINE
  5
1BA
100
AcDbEntity
100
AcDbLine
  8
cut
 62
256
370
-1
  6
ByLayer
 10
120.0
 20
-349.3106875575030017
 30
0.0
 11
112.3223304703362402
 21
-356.9883570871667189
 31
0.0
  0
ARC
  5
1BB
100
AcDbEntity
  8
cut
 62
256
370
-1
  6
ByLayer
100
AcDbCircle
 10
296.7766952966369445
 20
-172.5339922608661141
 30
0.0
 40
250.0000000000000284
100
AcDbArc
 50
224.9999999999999716
 51
314.9999999999999432
  0
LINE
  5
1BC
100
AcDbEntity
100
AcDbLine
  8
cut
 62
256
370
-1
  6
ByLayer
 10
473.5533905932736616
 20
-349.3106875575033428
 30
0.0
 11
481.2310601229374925
 21
-356.9883570871670599
 31
0.0
  0
ARC
  5
1BD
100
AcDbEntity
  8
cut
 62
256
370
-1
  6
ByLayer
100
AcDbCircle
 10
296.7766952966369445
 20
-172.5339922608661141
 30
0.0
 40
300.0000000000000568
100
AcDbArc
 50
224.9999999999999716
 51
314.9999999999999432
  0
LINE
  5
1BE
100
AcDbEntity
100
AcDbLine
  8
cut
 62
256
370
-1
  6
ByLayer
 10
501.2310601229372651
 20
-376.9883570871669463
 30
0.0
 11
508.9087296526008686
 21
-384.6660266168308908
 31
0.0
  0
CIRCLE
  5
1BF
100
AcDbEntity
100
AcDbCircle
  8
cut
 62
256
370
-1
  6
ByLayer
 10
146.7862382974412299
 20
-449.999393172990267
 30
0.0
 40
2.5
  0
CIRCLE
  5
1C0
100
AcDbEntity
100
AcDbCircle
  8
cut
 62
256
370
-1
  6
ByLayer
 10
157.0001671636866547
 20
-456.3185442422089864
 30
0.0
 40
2.5
  0
CIRCLE
  5
1C1
100
AcDbEntity
100
AcDbCircle
  8
cut
 62
256
370
-1
  6
ByLayer
 10
167.1883982129948834
 20
-462.6495774428814798
 30
0.0
 40
2.5
  0
CIRCLE
  5
1C2
100
AcDbEntity
100
AcDbCircle
  8
cut
 62
256
370
-1
  6
ByLayer
 10
177.4293934772766477
 20
-468.9420971940762684
 30
0.0
 40
2.5
  0
CIRCLE
  5
1C3
100
AcDbEntity
100
AcDbCircle
  8
cut
 62
256
370
-1
  6
ByLayer
 10
126.7749547583518961
 20
-482.3215995462211936
 30
0.0
 40
2.5
  0
CIRCLE
  5
1C4
100
AcDbEntity
100
AcDbCircle
  8
cut
 62
256
370
-1
  6
ByLayer
 10
136.9914240151877607
 20
-488.6098356080503322
 30
0.0
 40
2.5
  0
CIRCLE
  5
1C5
100
AcDbEntity
100
AcDbCircle
  8
cut
 62
256
370
-1
  6
ByLayer
 10
147.1958226417100946
 20
-494.9489724415940941
 30
0.0
 40
2.5
  0
CIRCLE
  5
1C6
100
AcDbEntity
100
AcDbCircle
  8
cut
 62
256
370
-1
  6
ByLayer
 10
157.4259929008970573
 20
-501.2784982277399308
 30
0.0
 40
2.5
  0
CIRCLE
  5
1C7
100
AcDbEntity
100
AcDbCircle
  8
cut
 62
256
370
-1
  6
ByLayer
 10
160.6721835206915046
 20
-480.7766951545306142
 30
0.0
 40
3.0
  0
CIRCLE
  5
1C8
100
AcDbEntity
100
AcDbCircle
  8
cut
 62
256
370
-1
  6
ByLayer
 10
132.8979161198868724
 20
-462.6892419920060888
 30
0.0
 40
11.0
  0
CIRCLE
  5
1C9
100
AcDbEntity
100
AcDbCircle
  8
cut
 62
256
370
-1
  6
ByLayer
 10
146.7476648187668502
 20
-460.6387637605013765
 30
0.0
 40
1.6000000000000001
  0
CIRCLE
  5
1CA
100
AcDbEntity
100
AcDbCircle
  8
cut
 62
256
370
-1
  6
ByLayer
 10
119.0481674210070082
 20
-464.7397202235108011
 30
0.0
 40
1.6000000000000001
  0
ARC
  5
1CB
100
AcDbEntity
  8
cut
 62
256
370
-1
  6
ByLayer
100
AcDbCircle
 10
109.3933982822018294
 20
-443.3701124565351961
 30
0.0
 40
10.0
100
AcDbArc
 50
205.5287793655087398
 51
64.4712190660087714
  0
ARC
  5
1CC
100
AcDbEntity
  8
cut
 62
256
370
-1
  6
ByLayer
100
AcDbCircle
 10
115.8578643762689921
 20
-429.8345785506024299
 30
0.0
 40
5.0
100
AcDbArc
 50
134.9999999999999716
 51
244.4712237714558967
  0
ARC
  5
1CD
100
AcDbEntity
  8
cut
 62
256
370
-1
  6
ByLayer
100
AcDbCircle
 10
95.857864376269049
 20
-449.8345785506023162
 30
0.0
 40
5.0
100
AcDbArc
 50
25.5287793655087292
 51
135.0000000000000568
  0
CIRCLE
  5
1CE
100
AcDbEntity
100
AcDbCircle
  8
cut
 62
256
370
-1
  6
ByLayer
 10
237.8609421725833784
 20
-491.5534219889179894
 30
0.0
 40
2.5
  0
CIRCLE
  5
1CF
100
AcDbEntity
100
AcDbCircle
  8
cut
 62
256
370
-1
  6
ByLayer
 10
249.7156164194358894
 20
-493.4828549681483878
 30
0.0
 40
2.5
  0
CIRCLE
  5
1D0
100
AcDbEntity
100
AcDbCircle
  8
cut
 62
256
370
-1
  6
ByLayer
 10
261.5510960740384689
 20
-495.4330997342211163
 30
0.0
 40
2.5
  0
CIRCLE
  5
1D1
100
AcDbEntity
100
AcDbCircle
  8
cut
 62
256
370
-1
  6
ByLayer
 10
273.420585047865643
 20
-497.3275707217030686
 30
0.0
 40
2.5
  0
CIRCLE
  5
1D2
100
AcDbEntity
100
AcDbCircle
  8
cut
 62
256
370
-1
  6
ByLayer
 10
231.7420997680597168
 20
-529.0732335735217475
 30
0.0
 40
2.5
  0
CIRCLE
  5
1D3
100
AcDbEntity
100
AcDbCircle
  8
cut
 62
256
370
-1
  6
ByLayer
 10
243.5872903686438917
 20
-530.9731326447868014
 30
0.0
 40
2.5
  0
CIRCLE
  5
1D4
100
AcDbEntity
100
AcDbCircle
  8
cut
 62
256
370
-1
  6
ByLayer
 10
255.4408080429665517
 20
-532.9246771274670209
 30
0.0
 40
2.5
  0
CIRCLE
  5
1D5
100
AcDbEntity
100
AcDbCircle
  8
cut
 62
256
370
-1
  6
ByLayer
 10
267.314457612620572
 20
-534.8574797833246066
 30
0.0
 40
2.5
  0
CIRCLE
  5
1D6
100
AcDbEntity
100
AcDbCircle
  8
cut
 62
256
370
-1
  6
ByLayer
 10
262.4678463151500409
 20
-514.6740201759153024
 30
0.0
 40
3.0
  0
CIRCLE
  5
1D7
100
AcDbEntity
100
AcDbCircle
  8
cut
 62
256
370
-1
  6
ByLayer
 10
229.8860004740732847
 20
-508.5921443841679661
 30
0.0
 40
11.0
  0
CIRCLE
  5
1D8
100
AcDbEntity
100
AcDbCircle
  8
cut
 62
256
370
-1
  6
ByLayer
 10
241.8968157797712024
 20
-501.3976801447394678
 30
0.0
 40
1.6000000000000001
  0
CIRCLE
  5
1D9
100
AcDbEntity
100
AcDbCircle
  8
cut
 62
256
370
-1
  6
ByLayer
 10
217.875185168375566
 20
-515.7866086235962939
 30
0.0
 40
1.6000000000000001
  0
CIRCLE
  5
1DA
100
AcDbEntity
100
AcDbCircle
  8
cut
 62
256
370
-1
  6
ByLayer
 10
337.9050353882311128
 20
-495.0915584247641732
 30
0.0
 40
2.5
  0
CIRCLE
  5
1DB
100
AcDbEntity
100
AcDbCircle
  8
cut
 62
256
370
-1
  6
ByLayer
 10
349.5956883244969049
 20
-492.3375346332719005
 30
0.0
 40
2.5
  0
CIRCLE
  5
1DC
100
AcDbEntity
100
AcDbCircle
  8
cut
 62
256
370
-1
  6
ByLayer
 10
361.2765720958709608
 20
-489.6100838781232483
 30
0.0
 40
2.5
  0
CIRCLE
  5
1DD
100
AcDbEntity
100
AcDbCircle
  8
cut
 62
256
370
-1
  6
ByLayer
 10
372.9675326801637993
 20
-486.8180900674706209
 30
0.0
 40
2.5
  0
CIRCLE
  5
1DE
100
AcDbEntity
100
AcDbCircle
  8
cut
 62
256
370
-1
  6
ByLayer
 10
346.6101724069167176
 20
-532.0969240249237373
 30
0.0
 40
2.5
  0
CIRCLE
  5
1DF
100
AcDbEntity
100
AcDbCircle
  8
cut
 62
256
370
-1
  6
ByLayer
 10
358.2807614592304617
 20
-529.3192436946521866
 30
0.0
 40
2.5
  0
CIRCLE
  5
1E0
100
AcDbEntity
100
AcDbCircle
  8
cut
 62
256
370
-1
  6
ByLayer
 10
369.9788075678434325
 20
-526.5860908697759442
 30
0.0
 40
2.5
  0
CIRCLE
  5
1E1
100
AcDbEntity
100
AcDbCircle
  8
cut
 62
256
370
-1
  6
ByLayer
 10
381.6882809358860413
 20
-523.8279187118907885
 30
0.0
 40
2.5
  0
CIRCLE
  5
1E2
100
AcDbEntity
100
AcDbCircle
  8
cut
 62
256
370
-1
  6
ByLayer
 10
369.4867203565495402
 20
-507.035551331992508
 30
0.0
 40
3.0
  0
CIRCLE
  5
1E3
100
AcDbEntity
100
AcDbCircle
  8
cut
 62
256
370
-1
  6
ByLayer
 10
337.0575867493370197
 20
-513.8851633679746556
 30
0.0
 40
11.0
  0
CIRCLE
  5
1E4
100
AcDbEntity
100
AcDbCircle
  8
cut
 62
256
370
-1
  6
ByLayer
 10
345.4009309098722724
 20
-502.6420050830948298
 30
0.0
 40
1.6000000000000001
  0
CIRCLE
  5
1E5
100
AcDbEntity
100
AcDbCircle
  8
cut
 62
256
370
-1
  6
ByLayer
 10
328.7142425888017669
 20
-525.1283216528545381
 30
0.0
 40
1.6000000000000001
  0
CIRCLE
  5
1E6
100
AcDbEntity
100
AcDbCircle
  8
cut
 62
256
370
-1
  6
ByLayer
 10
431.6877116542643762
 20
-460.0751532814582561
 30
0.0
 40
2.5
  0
CIRCLE
  5
1E7
100
AcDbEntity
100
AcDbCircle
  8
cut
 62
256
370
-1
  6
ByLayer
 10
441.4345473464301222
 20
-453.0569478762101312
 30
0.0
 40
2.5
  0
CIRCLE
  5
1E8
100
AcDbEntity
100
AcDbCircle
  8
cut
 62
256
370
-1
  6
ByLayer
 10
451.1825265678586447
 20
-446.0670312529089756
 30
0.0
 40
2.5
  0
CIRCLE
  5
1E9
100
AcDbEntity
100
AcDbCircle
  8
cut
 62
256
370
-1
  6
ByLayer
 10
460.915115992480537
 20
-439.0136283923064298
 30
0.0
 40
2.5
  0
CIRCLE
  5
1EA
100
AcDbEntity
100
AcDbCircle
  8
cut
 62
256
370
-1
  6
ByLayer
 10
453.8915498973287868
 20
-490.9323414390236735
 30
0.0
 40
2.5
  0
CIRCLE
  5
1EB
100
AcDbEntity
100
AcDbCircle
  8
cut
 62
256
370
-1
  6
ByLayer
 10
463.6107960123105158
 20
-483.8999583577647741
 30
0.0
 40
2.5
  0
CIRCLE
  5
1EC
100
AcDbEntity
100
AcDbCircle
  8
cut
 62
256
370
-1
  6
ByLayer
 10
473.3724490782291241
 20
-476.89820596682722
 30
0.0
 40
2.5
  0
CIRCLE
  5
1ED
100
AcDbEntity
100
AcDbCircle
  8
cut
 62
256
370
-1
  6
ByLayer
 10
483.1350850710164195
 20
-469.868965703344486
 30
0.0
 40
2.5
  0
CIRCLE
  5
1EE
100
AcDbEntity
100
AcDbCircle
  8
cut
 62
256
370
-1
  6
ByLayer
 10
465.4361522005956431
 20
-459.0241762613573542
 30
0.0
 40
3.0
  0
CIRCLE
  5
1EF
100
AcDbEntity
100
AcDbCircle
  8
cut
 62
256
370
-1
  6
ByLayer
 10
438.0967724481168943
 20
-477.7624847844784881
 30
0.0
 40
11.0
  0
CIRCLE
  5
1F0
100
AcDbEntity
100
AcDbCircle
  8
cut
 62
256
370
-1
  6
ByLayer
 10
441.5024469476510376
 20
-464.1823013835362985
 30
0.0
 40
1.6000000000000001
  0
CIRCLE
  5
1F1
100
AcDbEntity
100
AcDbCircle
  8
cut
 62
256
370
-1
  6
ByLayer
 10
434.6910979485828648
 20
-491.3426681854203366
 30
0.0
 40
1.6000000000000001
  0
ARC
  5
1F2
100
AcDbEntity
  8
cut
 62
256
370
-1
  6
ByLayer
100
AcDbCircle
 10
498.3021279348027974
 20
-429.2279768328045293
 30
0.0
 40
10.0
100
AcDbArc
 50
295.528779365508683
 51
154.4712206344911181
  0
ARC
  5
1F3
100
AcDbEntity
  8
cut
 62
256
370
-1
  6
ByLayer
100
AcDbCircle
 10
504.7665940288700313
 20
-442.7635107387375228
 30
0.0
 40
5.0
100
AcDbArc
 50
115.5287793655087256
 51
225.0000000000000853
  0
ARC
  5
1F4
100
AcDbEntity
  8
cut
 62
256
370
-1
  6
ByLayer
100
AcDbCircle
 10
484.7665940288700313
 20
-422.7635107387374092
 30
0.0
 40
5.0
100
AcDbArc
 50
224.9999999999999716
 51
334.4712206344913739
  0
LINE
  5
1F5
100
AcDbEntity
100
AcDbLine
  8
cut
 62
256
370
-1
  6
ByLayer
 10
92.3223304703362544
 20
-446.2990446446696637
 30
0.0
 11
84.6446609406725941
 21
-453.9767141743333241
 31
0.0
  0
LINE
  5
1F6
100
AcDbEntity
100
AcDbLine
  8
cut
 62
256
370
-1
  6
ByLayer
 10
120.0
 20
-418.6213751150059466
 30
0.0
 11
112.3223304703362402
 21
-426.2990446446696637
 31
0.0
  0
ARC
  5
1F7
100
AcDbEntity
  8
cut
 62
256
370
-1
  6
ByLayer
100
AcDbCircle
 10
296.7766952966369445
 20
-241.8446798183690873
 30
0.0
 40
250.0000000000000284
100
AcDbArc
 50
224.9999999999999716
 51
314.9999999999999432
  0
LINE
  5
1F8
100
AcDbEntity
100
AcDbLine
  8
cut
 62
256
370
-1
  6
ByLayer
 10
473.5533905932736616
 20
-418.6213751150063445
 30
0.0
 11
481.2310601229374925
 21
-426.2990446446700616
 31
0.0
  0
ARC
  5
1F9
100
AcDbEntity
  8
cut
 62
256
370
-1
  6
ByLayer
100
AcDbCircle
 10
296.7766952966369445
 20
-241.8446798183690873
 30
0.0
 40
300.0000000000000568
100
AcDbArc
 50
224.9999999999999716
 51
314.9999999999999432
  0
LINE
  5
1FA
100
AcDbEntity
100
AcDbLine
  8
cut
 62
256
370
-1
  6
ByLayer
 10
501.2310601229372651
 20
-446.299044644669948
 30
0.0
 11
508.9087296526008686
 21
-453.9767141743338357
 31
0.0
  0
LINE
  5
1FB
100
AcDbEntity
100
AcDbLine
  8
frame
 62
256
370
-1
  6
ByLayer
 10
82.5233405971128775
 20
-417.4766594028869804
 30
0.0
 11
82.5233405971128917
 21
-217.4766594028869804
 31
0.0
  0
LINE
  5
1FC
100
AcDbEntity
100
AcDbLine
  8
frame
 62
256
370
-1
  6
ByLayer
 10
-49.8015151558200699
 20
-585.3485437610788722
 30
0.0
 11
-49.8015151558199918
 21
14.6514562389210692
 31
0.0
  0
LINE
  5
1FD
100
AcDbEntity
100
AcDbLine
  8
frame
 62
256
370
-1
  6
ByLayer
 10
-80.0
 20
-300.0
 30
0.0
 11
120.0
 21
-300.0
 31
0.0
  0
CIRCLE
  5
1FE
100
AcDbEntity
100
AcDbCircle
  8
cut
 62
256
370
-1
  6
ByLayer
 10
551.3780180579842636
 20
-363.2137617025587701
 30
0.0
 40
2.5
  0
CIRCLE
  5
1FF
100
AcDbEntity
100
AcDbCircle
  8
cut
 62
256
370
-1
  6
ByLayer
 10
557.697169127202983
 20
-352.9998328363133169
 30
0.0
 40
2.5
  0
CIRCLE
  5
200
100
AcDbEntity
100
AcDbCircle
  8
cut
 62
256
370
-1
  6
ByLayer
 10
564.0282023278754195
 20
-342.8116017870050882
 30
0.0
 40
2.5
  0
CIRCLE
  5
201
100
AcDbEntity
100
AcDbCircle
  8
cut
 62
256
370
-1
  6
ByLayer
 10
570.320722079070265
 20
-332.5706065227233239
 30
0.0
 40
2.5
  0
CIRCLE
  5
202
100
AcDbEntity
100
AcDbCircle
  8
cut
 62
256
370
-1
  6
ByLayer
 10
583.700224431215247
 20
-383.2250452416481039
 30
0.0
 40
2.5
  0
CIRCLE
  5
203
100
AcDbEntity
100
AcDbCircle
  8
cut
 62
256
370
-1
  6
ByLayer
 10
589.988460493044272
 20
-373.0085759848122962
 30
0.0
 40
2.5
  0
CIRCLE
  5
204
100
AcDbEntity
100
AcDbCircle
  8
cut
 62
256
370
-1
  6
ByLayer
 10
596.3275973265880339
 20
-362.8041773582899623
 30
0.0
 40
2.5
  0
CIRCLE
  5
205
100
AcDbEntity
100
AcDbCircle
  8
cut
 62
256
370
-1
  6
ByLayer
 10
602.6571231127339843
 20
-352.5740070991029143
 30
0.0
 40
2.5
  0
CIRCLE
  5
206
100
AcDbEntity
100
AcDbCircle
  8
cut
 62
256
370
-1
  6
ByLayer
 10
582.155320039524554
 20
-349.327816479308467
 30
0.0
 40
3.0
  0
CIRCLE
  5
207
100
AcDbEntity
100
AcDbCircle
  8
cut
 62
256
370
-1
  6
ByLayer
 10
564.0678668770001423
 20
-377.1020838801131276
 30
0.0
 40
11.0
  0
CIRCLE
  5
208
100
AcDbEntity
100
AcDbCircle
  8
cut
 62
256
370
-1
  6
ByLayer
 10
562.0173886454953163
 20
-363.2523351812332066
 30
0.0
 40
1.6000000000000001
  0
CIRCLE
  5
209
100
AcDbEntity
100
AcDbCircle
  8
cut
 62
256
370
-1
  6
ByLayer
 10
566.1183451085046272
 20
-390.9518325789930486
 30
0.0
 40
1.6000000000000001
  0
ARC
  5
20A
100
AcDbEntity
  8
cut
 62
256
370
-1
  6
ByLayer
100
AcDbCircle
 10
544.7487373415292495
 20
-400.6066017177981848
 30
0.0
 40
10.0
100
AcDbArc
 50
295.528779365508683
 51
154.4712190660087572
  0
ARC
  5
20B
100
AcDbEntity
  8
cut
 62
256
370
-1
  6
ByLayer
100
AcDbCircle
 10
531.2132034355963697
 20
-394.1421356237310079
 30
0.0
 40
5.0
100
AcDbArc
 50
224.9999999999999716
 51
334.4712237714558682
  0
ARC
  5
20C
100
AcDbEntity
  8
cut
 62
256
370
-1
  6
ByLayer
100
AcDbCircle
 10
551.2132034355963697
 20
-414.142135623730951
 30
0.0
 40
5.0
100
AcDbArc
 50
115.5287793655087256
 51
225.0000000000000568
  0
CIRCLE
  5
20D
100
AcDbEntity
100
AcDbCircle
  8
cut
 62
256
370
-1
  6
ByLayer
 10
592.932046873911986
 20
-272.1390578274166501
 30
0.0
 40
2.5
  0
CIRCLE
  5
20E
100
AcDbEntity
100
AcDbCircle
  8
cut
 62
256
370
-1
  6
ByLayer
 10
594.8614798531424412
 20
-260.2843835805640538
 30
0.0
 40
2.5
  0
CIRCLE
  5
20F
100
AcDbEntity
100
AcDbCircle
  8
cut
 62
256
370
-1
  6
ByLayer
 10
596.8117246192151697
 20
-248.4489039259615311
 30
0.0
 40
2.5
  0
CIRCLE
  5
210
100
AcDbEntity
100
AcDbCircle
  8
cut
 62
256
370
-1
  6
ByLayer
 10
598.7061956066971788
 20
-236.5794149521343286
 30
0.0
 40
2.5
  0
CIRCLE
  5
211
100
AcDbEntity
100
AcDbCircle
  8
cut
 62
256
370
-1
  6
ByLayer
 10
630.4518584585157441
 20
-278.2579002319404253
 30
0.0
 40
2.5
  0
CIRCLE
  5
212
100
AcDbEntity
100
AcDbCircle
  8
cut
 62
256
370
-1
  6
ByLayer
 10
632.351757529780798
 20
-266.4127096313561651
 30
0.0
 40
2.5
  0
CIRCLE
  5
213
100
AcDbEntity
100
AcDbCircle
  8
cut
 62
256
370
-1
  6
ByLayer
 10
634.3033020124611312
 20
-254.5591919570335619
 30
0.0
 40
2.5
  0
CIRCLE
  5
214
100
AcDbEntity
100
AcDbCircle
  8
cut
 62
256
370
-1
  6
ByLayer
 10
636.2361046683186032
 20
-242.6855423873795132
 30
0.0
 40
2.5
  0
CIRCLE
  5
215
100
AcDbEntity
100
AcDbCircle
  8
cut
 62
256
370
-1
  6
ByLayer
 10
616.052645060909299
 20
-247.5321536848500159
 30
0.0
 40
3.0
  0
CIRCLE
  5
216
100
AcDbEntity
100
AcDbCircle
  8
cut
 62
256
370
-1
  6
ByLayer
 10
609.9707692691620196
 20
-280.1139995259267153
 30
0.0
 40
11.0
  0
CIRCLE
  5
217
100
AcDbEntity
100
AcDbCircle
  8
cut
 62
256
370
-1
  6
ByLayer
 10
602.7763050297335212
 20
-268.1031842202287976
 30
0.0
 40
1.6000000000000001
  0
CIRCLE
  5
218
100
AcDbEntity
100
AcDbCircle
  8
cut
 62
256
370
-1
  6
ByLayer
 10
617.1652335085904042
 20
-292.1248148316244624
 30
0.0
 40
1.6000000000000001
  0
CIRCLE
  5
219
100
AcDbEntity
100
AcDbCircle
  8
cut
 62
256
370
-1
  6
ByLayer
 10
596.4701833097582266
 20
-172.0949646117688872
 30
0.0
 40
2.5
  0
CIRCLE
  5
21A
100
AcDbEntity
100
AcDbCircle
  8
cut
 62
256
370
-1
  6
ByLayer
 10
593.7161595182659539
 20
-160.4043116755031519
 30
0.0
 40
2.5
  0
CIRCLE
  5
21B
100
AcDbEntity
100
AcDbCircle
  8
cut
 62
256
370
-1
  6
ByLayer
 10
590.9887087631173017
 20
-148.7234279041290961
 30
0.0
 40
2.5
  0
CIRCLE
  5
21C
100
AcDbEntity
100
AcDbCircle
  8
cut
 62
256
370
-1
  6
ByLayer
 10
588.1967149524647311
 20
-137.0324673198362575
 30
0.0
 40
2.5
  0
CIRCLE
  5
21D
100
AcDbEntity
100
AcDbCircle
  8
cut
 62
256
370
-1
  6
ByLayer
 10
633.4755489099177339
 20
-163.3898275930833393
 30
0.0
 40
2.5
  0
CIRCLE
  5
21E
100
AcDbEntity
100
AcDbCircle
  8
cut
 62
256
370
-1
  6
ByLayer
 10
630.6978685796462969
 20
-151.7192385407695951
 30
0.0
 40
2.5
  0
CIRCLE
  5
21F
100
AcDbEntity
100
AcDbCircle
  8
cut
 62
256
370
-1
  6
ByLayer
 10
627.9647157547699408
 20
-140.0211924321565675
 30
0.0
 40
2.5
  0
CIRCLE
  5
220
100
AcDbEntity
100
AcDbCircle
  8
cut
 62
256
370
-1
  6
ByLayer
 10
625.2065435968848988
 20
-128.3117190641139587
 30
0.0
 40
2.5
  0
CIRCLE
  5
221
100
AcDbEntity
100
AcDbCircle
  8
cut
 62
256
370
-1
  6
ByLayer
 10
608.4141762169865615
 20
-140.5132796434505167
 30
0.0
 40
3.0
  0
CIRCLE
  5
222
100
AcDbEntity
100
AcDbCircle
  8
cut
 62
256
370
-1
  6
ByLayer
 10
615.2637882529686522
 20
-172.9424132506630087
 30
0.0
 40
11.0
  0
CIRCLE
  5
223
100
AcDbEntity
100
AcDbCircle
  8
cut
 62
256
370
-1
  6
ByLayer
 10
604.0206299680888833
 20
-164.599069090127756
 30
0.0
 40
1.6000000000000001
  0
CIRCLE
  5
224
100
AcDbEntity
100
AcDbCircle
  8
cut
 62
256
370
-1
  6
ByLayer
 10
626.5069465378486484
 20
-181.2857574111982615
 30
0.0
 40
1.6000000000000001
  0
CIRCLE
  5
225
100
AcDbEntity
100
AcDbCircle
  8
cut
 62
256
370
-1
  6
ByLayer
 10
561.4537781664523663
 20
-78.3122883457356238
 30
0.0
 40
2.5
  0
CIRCLE
  5
226
100
AcDbEntity
100
AcDbCircle
  8
cut
 62
256
370
-1
  6
ByLayer
 10
554.4355727612042983
 20
-68.5654526535698778
 30
0.0
 40
2.5
  0
CIRCLE
  5
227
100
AcDbEntity
100
AcDbCircle
  8
cut
 62
256
370
-1
  6
ByLayer
 10
547.4456561379031427
 20
-58.8174734321413837
 30
0.0
 40
2.5
  0
CIRCLE
  5
228
100
AcDbEntity
100
AcDbCircle
  8
cut
 62
256
370
-1
  6
ByLayer
 10
540.3922532773004832
 20
-49.084884007519463
 30
0.0
 40
2.5
  0
CIRCLE
  5
229
100
AcDbEntity
100
AcDbCircle
  8
cut
 62
256
370
-1
  6
ByLayer
 10
592.3109663240178406
 20
-56.1084501026712417
 30
0.0
 40
2.5
  0
CIRCLE
  5
22A
100
AcDbEntity
100
AcDbCircle
  8
cut
 62
256
370
-1
  6
ByLayer
 10
585.2785832427589412
 20
-46.3892039876895126
 30
0.0
 40
2.5
  0
CIRCLE
  5
22B
100
AcDbEntity
100
AcDbCircle
  8
cut
 62
256
370
-1
  6
ByLayer
 10
578.2768308518212734
 20
-36.6275509217709043
 30
0.0
 40
2.5
  0
CIRCLE
  5
22C
100
AcDbEntity
100
AcDbCircle
  8
cut
 62
256
370
-1
  6
ByLayer
 10
571.2475905883385394
 20
-26.8649149289835805
 30
0.0
 40
2.5
  0
CIRCLE
  5
22D
100
AcDbEntity
100
AcDbCircle
  8
cut
 62
256
370
-1
  6
ByLayer
 10
560.4028011463514076
 20
-44.5638477994043569
 30
0.0
 40
3.0
  0
CIRCLE
  5
22E
100
AcDbEntity
100
AcDbCircle
  8
cut
 62
256
370
-1
  6
ByLayer
 10
579.1411096694725984
 20
-71.9032275518831057
 30
0.0
 40
11.0
  0
CIRCLE
  5
22F
100
AcDbEntity
100
AcDbCircle
  8
cut
 62
256
370
-1
  6
ByLayer
 10
565.560926268530352
 20
-68.4975530523489908
 30
0.0
 40
1.6000000000000001
  0
CIRCLE
  5
230
100
AcDbEntity
100
AcDbCircle
  8
cut
 62
256
370
-1
  6
ByLayer
 10
592.7212930704143901
 20
-75.3089020514171636
 30
0.0
 40
1.6000000000000001
  0
ARC
  5
231
100
AcDbEntity
  8
cut
 62
256
370
-1
  6
ByLayer
100
AcDbCircle
 10
530.6066017177986396
 20
-11.6978720651972026
 30
0.0
 40
10.0
100
AcDbArc
 50
25.5287793655087043
 51
244.4712206344910896
  0
ARC
  5
232
100
AcDbEntity
  8
cut
 62
256
370
-1
  6
ByLayer
100
AcDbCircle
 10
544.1421356237317468
 20
-5.2334059711299972
 30
0.0
 40
5.0
100
AcDbArc
 50
205.5287793655087398
 51
315.0000000000000568
  0
ARC
  5
233
100
AcDbEntity
  8
cut
 62
256
370
-1
  6
ByLayer
100
AcDbCircle
 10
524.1421356237314058
 20
-25.2334059711299403
 30
0.0
 40
5.0
100
AcDbArc
 50
314.9999999999999432
 51
64.4712206344914023
  0
LINE
  5
234
100
AcDbEntity
100
AcDbLine
  8
cut
 62
256
370
-1
  6
ByLayer
 10
547.6776695296637172
 20
-417.6776695296637172
 30
0.0
 11
555.355339059327207
 21
-425.3553390593274344
 31
0.0
  0
LINE
  5
235
100
AcDbEntity
100
AcDbLine
  8
cut
 62
256
370
-1
  6
ByLayer
 10
520.0
 20
-390.0
 30
0.0
 11
527.6776695296634898
 21
-397.677669529663774
 31
0.0
  0
ARC
  5
236
100
AcDbEntity
  8
cut
 62
256
370
-1
  6
ByLayer
100
AcDbCircle
 10
343.2233047033631692
 20
-213.2233047033630839
 30
0.0
 40
250.0000000000000284
100
AcDbArc
 50
314.9999999999999432
 51
44.9999999999999503
  0
LINE
  5
237
100
AcDbEntity
100
AcDbLine
  8
cut
 62
256
370
-1
  6
ByLayer
 10
520.0000000000005684
 20
-36.4466094067263384
 30
0.0
 11
527.6776695296641719
 21
-28.7689398770625075
 31
0.0
  0
ARC
  5
238
100
AcDbEntity
  8
cut
 62
256
370
-1
  6
ByLayer
100
AcDbCircle
 10
343.2233047033631692
 20
-213.2233047033630839
 30
0.0
 40
300.0000000000000568
100
AcDbArc
 50
314.9999999999999432
 51
44.9999999999999503
  0
LINE
  5
239
100
AcDbEntity
100
AcDbLine
  8
cut
 62
256
370
-1
  6
ByLayer
 10
547.6776695296640582
 20
-8.7689398770627349
 30
0.0
 11
555.3553390593280028
 21
-1.0912703473991314
 31
0.0
  0
LINE
  5
23A
100
AcDbEntity
100
AcDbLine
  8
frame
 62
256
370
-1
  6
ByLayer
 10
520.0
 20
-390.0
 30
0.0
 11
520.0000000000005684
 21
-36.4466094067263384
 31
0.0
  0
ARC
  5
23B
100
AcDbEntity
  8
frame
 62
256
370
-1
  6
ByLayer
100
AcDbCircle
 10
343.2233047033631692
 20
-213.2233047033630839
 30
0.0
 40
303.0000000000000568
100
AcDbArc
 50
314.9999999999999432
 51
44.9999999999999503
  0
LINE
  5
23C
100
AcDbEntity
100
AcDbLine
  8
frame
 62
256
370
-1
  6
ByLayer
 10
620.3871644567492467
 20
-98.4182749938360786
 30
0.0
 11
574.1931878311849005
 21
-117.5524466120906766
 31
0.0
  0
LINE
  5
23D
100
AcDbEntity
100
AcDbLine
  8
frame
 62
256
370
-1
  6
ByLayer
 10
643.2233047033631692
 20
-213.2233047033632545
 30
0.0
 11
593.2233047033631692
 21
-213.2233047033631976
 31
0.0
  0
CIRCLE
  5
23E
100
AcDbEntity
100
AcDbCircle
  8
cut
 62
256
370
-1
  6
ByLayer
 10
620.6887056154872653
 20
-363.213761702558827
 30
0.0
 40
2.5
  0
CIRCLE
  5
23F
100
AcDbEntity
100
AcDbCircle
  8
cut
 62
256
370
-1
  6
ByLayer
 10
627.0078566847059847
 20
-352.9998328363133169
 30
0.0
 40
2.5
  0
CIRCLE
  5
240
100
AcDbEntity
100
AcDbCircle
  8
cut
 62
256
370
-1
  6
ByLayer
 10
633.3388898853785349
 20
-342.8116017870050882
 30
0.0
 40
2.5
  0
CIRCLE
  5
241
100
AcDbEntity
100
AcDbCircle
  8
cut
 62
256
370
-1
  6
ByLayer
 10
639.6314096365732667
 20
-332.5706065227233239
 30
0.0
 40
2.5
  0
CIRCLE
  5
242
100
AcDbEntity
100
AcDbCircle
  8
cut
 62
256
370
-1
  6
ByLayer
 10
653.010911988718135
 20
-383.2250452416481039
 30
0.0
 40
2.5
  0
CIRCLE
  5
243
100
AcDbEntity
100
AcDbCircle
  8
cut
 62
256
370
-1
  6
ByLayer
 10
659.2991480505473874
 20
-373.0085759848121825
 30
0.0
 40
2.5
  0
CIRCLE
  5
244
100
AcDbEntity
100
AcDbCircle
  8
cut
 62
256
370
-1
  6
ByLayer
 10
665.6382848840911493
 20
-362.8041773582899623
 30
0.0
 40
2.5
  0
CIRCLE
  5
245
100
AcDbEntity
100
AcDbCircle
  8
cut
 62
256
370
-1
  6
ByLayer
 10
671.967810670236986
 20
-352.5740070991029143
 30
0.0
 40
2.5
  0
CIRCLE
  5
246
100
AcDbEntity
100
AcDbCircle
  8
cut
 62
256
370
-1
  6
ByLayer
 10
651.4660075970276694
 20
-349.327816479308467
 30
0.0
 40
3.0
  0
CIRCLE
  5
247
100
AcDbEntity
100
AcDbCircle
  8
cut
 62
256
370
-1
  6
ByLayer
 10
633.3785544345030303
 20
-377.1020838801131276
 30
0.0
 40
11.0
  0
CIRCLE
  5
248
100
AcDbEntity
100
AcDbCircle
  8
cut
 62
256
370
-1
  6
ByLayer
 10
631.328076202998318
 20
-363.2523351812332066
 30
0.0
 40
1.6000000000000001
  0
CIRCLE
  5
249
100
AcDbEntity
100
AcDbCircle
  8
cut
 62
256
370
-1
  6
ByLayer
 10
635.42903266600797
 20
-390.9518325789929349
 30
0.0
 40
1.6000000000000001
  0
ARC
  5
24A
100
AcDbEntity
  8
cut
 62
256
370
-1
  6
ByLayer
100
AcDbCircle
 10
614.0594248990321375
 20
-400.6066017177981848
 30
0.0
 40
10.0
100
AcDbArc
 50
295.528779365508683
 51
154.4712190660087572
  0
ARC
  5
24B
100
AcDbEntity
  8
cut
 62
256
370
-1
  6
ByLayer
100
AcDbCircle
 10
600.5238909930994851
 20
-394.1421356237310079
 30
0.0
 40
5.0
100
AcDbArc
 50
224.9999999999999716
 51
334.4712237714558682
  0
ARC
  5
24C
100
AcDbEntity
  8
cut
 62
256
370
-1
  6
ByLayer
100
AcDbCircle
 10
620.523890993099144
 20
-414.1421356237310647
 30
0.0
 40
5.0
100
AcDbArc
 50
115.5287793655087256
 51
225.0000000000000568
  0
CIRCLE
  5
24D
100
AcDbEntity
100
AcDbCircle
  8
cut
 62
256
370
-1
  6
ByLayer
 10
662.2427344314149877
 20
-272.1390578274166501
 30
0.0
 40
2.5
  0
CIRCLE
  5
24E
100
AcDbEntity
100
AcDbCircle
  8
cut
 62
256
370
-1
  6
ByLayer
 10
664.1721674106454429
 20
-260.2843835805641106
 30
0.0
 40
2.5
  0
CIRCLE
  5
24F
100
AcDbEntity
100
AcDbCircle
  8
cut
 62
256
370
-1
  6
ByLayer
 10
666.1224121767181714
 20
-248.4489039259616163
 30
0.0
 40
2.5
  0
CIRCLE
  5
250
100
AcDbEntity
100
AcDbCircle
  8
cut
 62
256
370
-1
  6
ByLayer
 10
668.0168831642000669
 20
-236.5794149521344139
 30
0.0
 40
2.5
  0
CIRCLE
  5
251
100
AcDbEntity
100
AcDbCircle
  8
cut
 62
256
370
-1
  6
ByLayer
 10
699.7625460160187458
 20
-278.2579002319403116
 30
0.0
 40
2.5
  0
CIRCLE
  5
252
100
AcDbEntity
100
AcDbCircle
  8
cut
 62
256
370
-1
  6
ByLayer
 10
701.6624450872837997
 20
-266.4127096313560514
 30
0.0
 40
2.5
  0
CIRCLE
  5
253
100
AcDbEntity
100
AcDbCircle
  8
cut
 62
256
370
-1
  6
ByLayer
 10
703.6139895699641329
 20
-254.5591919570334767
 30
0.0
 40
2.5
  0
CIRCLE
  5
254
100
AcDbEntity
100
AcDbCircle
  8
cut
 62
256
370
-1
  6
ByLayer
 10
705.5467922258216049
 20
-242.685542387379428
 30
0.0
 40
2.5
  0
CIRCLE
  5
255
100
AcDbEntity
100
AcDbCircle
  8
cut
 62
256
370
-1
  6
ByLayer
 10
685.3633326184123007
 20
-247.5321536848499306
 30
0.0
 40
3.0
  0
CIRCLE
  5
256
100
AcDbEntity
100
AcDbCircle
  8
cut
 62
256
370
-1
  6
ByLayer
 10
679.2814568266650213
 20
-280.1139995259267721
 30
0.0
 40
11.0
  0
CIRCLE
  5
257
100
AcDbEntity
100
AcDbCircle
  8
cut
 62
256
370
-1
  6
ByLayer
 10
672.0869925872364092
 20
-268.1031842202289113
 30
0.0
 40
1.6000000000000001
  0
CIRCLE
  5
258
100
AcDbEntity
100
AcDbCircle
  8
cut
 62
256
370
-1
  6
ByLayer
 10
686.4759210660934059
 20
-292.1248148316244624
 30
0.0
 40
1.6000000000000001
  0
CIRCLE
  5
259
100
AcDbEntity
100
AcDbCircle
  8
cut
 62
256
370
-1
  6
ByLayer
 10
665.7808708672612283
 20
-172.0949646117688872
 30
0.0
 40
2.5
  0
CIRCLE
  5
25A
100
AcDbEntity
100
AcDbCircle
  8
cut
 62
256
370
-1
  6
ByLayer
 10
663.0268470757689556
 20
-160.4043116755031804
 30
0.0
 40
2.5
  0
CIRCLE
  5
25B
100
AcDbEntity
100
AcDbCircle
  8
cut
 62
256
370
-1
  6
ByLayer
 10
660.2993963206203034
 20
-148.7234279041291529
 30
0.0
 40
2.5
  0
CIRCLE
  5
25C
100
AcDbEntity
100
AcDbCircle
  8
cut
 62
256
370
-1
  6
ByLayer
 10
657.5074025099676192
 20
-137.0324673198362575
 30
0.0
 40
2.5
  0
CIRCLE
  5
25D
100
AcDbEntity
100
AcDbCircle
  8
cut
 62
256
370
-1
  6
ByLayer
 10
702.7862364674207356
 20
-163.3898275930832824
 30
0.0
 40
2.5
  0
CIRCLE
  5
25E
100
AcDbEntity
100
AcDbCircle
  8
cut
 62
256
370
-1
  6
ByLayer
 10
700.0085561371492986
 20
-151.7192385407695951
 30
0.0
 40
2.5
  0
CIRCLE
  5
25F
100
AcDbEntity
100
AcDbCircle
  8
cut
 62
256
370
-1
  6
ByLayer
 10
697.2754033122729425
 20
-140.0211924321565675
 30
0.0
 40
2.5
  0
CIRCLE
  5
260
100
AcDbEntity
100
AcDbCircle
  8
cut
 62
256
370
-1
  6
ByLayer
 10
694.5172311543879005
 20
-128.3117190641139302
 30
0.0
 40
2.5
  0
CIRCLE
  5
261
100
AcDbEntity
100
AcDbCircle
  8
cut
 62
256
370
-1
  6
ByLayer
 10
677.7248637744895632
 20
-140.513279643450403
 30
0.0
 40
3.0
  0
CIRCLE
  5
262
100
AcDbEntity
100
AcDbCircle
  8
cut
 62
256
370
-1
  6
ByLayer
 10
684.5744758104716539
 20
-172.9424132506630372
 30
0.0
 40
11.0
  0
CIRCLE
  5
263
100
AcDbEntity
100
AcDbCircle
  8
cut
 62
256
370
-1
  6
ByLayer
 10
673.331317525591885
 20
-164.5990690901277844
 30
0.0
 40
1.6000000000000001
  0
CIRCLE
  5
264
100
AcDbEntity
100
AcDbCircle
  8
cut
 62
256
370
-1
  6
ByLayer
 10
695.8176340953516501
 20
-181.2857574111982331
 30
0.0
 40
1.6000000000000001
  0
CIRCLE
  5
265
100
AcDbEntity
100
AcDbCircle
  8
cut
 62
256
370
-1
  6
ByLayer
 10
630.7644657239552544
 20
-78.3122883457356522
 30
0.0
 40
2.5
  0
CIRCLE
  5
266
100
AcDbEntity
100
AcDbCircle
  8
cut
 62
256
370
-1
  6
ByLayer
 10
623.7462603187071863
 20
-68.5654526535699063
 30
0.0
 40
2.5
  0
CIRCLE
  5
267
100
AcDbEntity
100
AcDbCircle
  8
cut
 62
256
370
-1
  6
ByLayer
 10
616.7563436954060307
 20
-58.8174734321413837
 30
0.0
 40
2.5
  0
CIRCLE
  5
268
100
AcDbEntity
100
AcDbCircle
  8
cut
 62
256
370
-1
  6
ByLayer
 10
609.7029408348034849
 20
-49.0848840075194346
 30
0.0
 40
2.5
  0
CIRCLE
  5
269
100
AcDbEntity
100
AcDbCircle
  8
cut
 62
256
370
-1
  6
ByLayer
 10
661.6216538815207286
 20
-56.1084501026712132
 30
0.0
 40
2.5
  0
CIRCLE
  5
26A
100
AcDbEntity
100
AcDbCircle
  8
cut
 62
256
370
-1
  6
ByLayer
 10
654.5892708002619429
 20
-46.3892039876895694
 30
0.0
 40
2.5
  0
CIRCLE
  5
26B
100
AcDbEntity
100
AcDbCircle
  8
cut
 62
256
370
-1
  6
ByLayer
 10
647.5875184093243888
 20
-36.6275509217709612
 30
0.0
 40
2.5
  0
CIRCLE
  5
26C
100
AcDbEntity
100
AcDbCircle
  8
cut
 62
256
370
-1
  6
ByLayer
 10
640.5582781458416548
 20
-26.8649149289836373
 30
0.0
 40
2.5
  0
CIRCLE
  5
26D
100
AcDbEntity
100
AcDbCircle
  8
cut
 62
256
370
-1
  6
ByLayer
 10
629.7134887038544093
 20
-44.5638477994043569
 30
0.0
 40
3.0
  0
CIRCLE
  5
26E
100
AcDbEntity
100
AcDbCircle
  8
cut
 62
256
370
-1
  6
ByLayer
 10
648.4517972269754864
 20
-71.9032275518831057
 30
0.0
 40
11.0
  0
CIRCLE
  5
26F
100
AcDbEntity
100
AcDbCircle
  8
cut
 62
256
370
-1
  6
ByLayer
 10
634.8716138260334674
 20
-68.4975530523490193
 30
0.0
 40
1.6000000000000001
  0
CIRCLE
  5
270
100
AcDbEntity
100
AcDbCircle
  8
cut
 62
256
370
-1
  6
ByLayer
 10
662.0319806279173918
 20
-75.3089020514171352
 30
0.0
 40
1.6000000000000001
  0
ARC
  5
271
100
AcDbEntity
  8
cut
 62
256
370
-1
  6
ByLayer
100
AcDbCircle
 10
599.9172892753015276
 20
-11.697872065197231
 30
0.0
 40
10.0
100
AcDbArc
 50
25.5287793655087043
 51
244.4712206344910896
  0
ARC
  5
272
100
AcDbEntity
  8
cut
 62
256
370
-1
  6
ByLayer
100
AcDbCircle
 10
613.4528231812346348
 20
-5.2334059711300256
 30
0.0
 40
5.0
100
AcDbArc
 50
205.5287793655087398
 51
315.0000000000000568
  0
ARC
  5
273
100
AcDbEntity
  8
cut
 62
256
370
-1
  6
ByLayer
100
AcDbCircle
 10
593.4528231812344075
 20
-25.2334059711299687
 30
0.0
 40
5.0
100
AcDbArc
 50
314.9999999999999432
 51
64.4712206344914023
  0
LINE
  5
274
100
AcDbEntity
100
AcDbLine
  8
cut
 62
256
370
-1
  6
ByLayer
 10
616.9883570871667189
 20
-417.6776695296637172
 30
0.0
 11
624.6660266168303224
 21
-425.3553390593274344
 31
0.0
  0
LINE
  5
275
100
AcDbEntity
100
AcDbLine
  8
cut
 62
256
370
-1
  6
ByLayer
 10
589.3106875575031154
 20
-390.0
 30
0.0
 11
596.9883570871667189
 21
-397.677669529663774
 31
0.0
  0
ARC
  5
276
100
AcDbEntity
  8
cut
 62
256
370
-1
  6
ByLayer
100
AcDbCircle
 10
412.5339922608661141
 20
-213.2233047033630271
 30
0.0
 40
250.0000000000000284
100
AcDbArc
 50
314.9999999999999432
 51
44.9999999999999503
  0
LINE
  5
277
100
AcDbEntity
100
AcDbLine
  8
cut
 62
256
370
-1
  6
ByLayer
 10
589.3106875575033428
 20
-36.4466094067263668
 30
0.0
 11
596.9883570871670599
 21
-28.7689398770625075
 31
0.0
  0
ARC
  5
278
100
AcDbEntity
  8
cut
 62
256
370
-1
  6
ByLayer
100
AcDbCircle
 10
412.5339922608661141
 20
-213.2233047033630271
 30
0.0
 40
300.0000000000000568
100
AcDbArc
 50
314.9999999999999432
 51
44.9999999999999503
  0
LINE
  5
279
100
AcDbEntity
100
AcDbLine
  8
cut
 62
256
370
-1
  6
ByLayer
 10
616.9883570871670599
 20
-8.7689398770627918
 30
0.0
 11
624.6660266168310045
 21
-1.0912703473991883
 31
0.0
  0
CIRCLE
  5
27A
100
AcDbEntity
100
AcDbCircle
  8
cut
 62
256
370
-1
  6
ByLayer
 10
689.9993931729901533
 20
-363.2137617025589407
 30
0.0
 40
2.5
  0
CIRCLE
  5
27B
100
AcDbEntity
100
AcDbCircle
  8
cut
 62
256
370
-1
  6
ByLayer
 10
696.3185442422088727
 20
-352.9998328363133737
 30
0.0
 40
2.5
  0
CIRCLE
  5
27C
100
AcDbEntity
100
AcDbCircle
  8
cut
 62
256
370
-1
  6
ByLayer
 10
702.6495774428814229
 20
-342.8116017870052019
 30
0.0
 40
2.5
  0
CIRCLE
  5
27D
100
AcDbEntity
100
AcDbCircle
  8
cut
 62
256
370
-1
  6
ByLayer
 10
708.9420971940762684
 20
-332.5706065227233807
 30
0.0
 40
2.5
  0
CIRCLE
  5
27E
100
AcDbEntity
100
AcDbCircle
  8
cut
 62
256
370
-1
  6
ByLayer
 10
722.3215995462211367
 20
-383.2250452416482176
 30
0.0
 40
2.5
  0
CIRCLE
  5
27F
100
AcDbEntity
100
AcDbCircle
  8
cut
 62
256
370
-1
  6
ByLayer
 10
728.6098356080503891
 20
-373.0085759848122962
 30
0.0
 40
2.5
  0
CIRCLE
  5
280
100
AcDbEntity
100
AcDbCircle
  8
cut
 62
256
370
-1
  6
ByLayer
 10
734.9489724415940373
 20
-362.8041773582899623
 30
0.0
 40
2.5
  0
CIRCLE
  5
281
100
AcDbEntity
100
AcDbCircle
  8
cut
 62
256
370
-1
  6
ByLayer
 10
741.2784982277397603
 20
-352.5740070991031416
 30
0.0
 40
2.5
  0
CIRCLE
  5
282
100
AcDbEntity
100
AcDbCircle
  8
cut
 62
256
370
-1
  6
ByLayer
 10
720.7766951545305574
 20
-349.3278164793085807
 30
0.0
 40
3.0
  0
CIRCLE
  5
283
100
AcDbEntity
100
AcDbCircle
  8
cut
 62
256
370
-1
  6
ByLayer
 10
702.6892419920061457
 20
-377.1020838801131276
 30
0.0
 40
11.0
  0
CIRCLE
  5
284
100
AcDbEntity
100
AcDbCircle
  8
cut
 62
256
370
-1
  6
ByLayer
 10
700.6387637605013197
 20
-363.2523351812332066
 30
0.0
 40
1.6000000000000001
  0
CIRCLE
  5
285
100
AcDbEntity
100
AcDbCircle
  8
cut
 62
256
370
-1
  6
ByLayer
 10
704.7397202235107443
 20
-390.9518325789930486
 30
0.0
 40
1.6000000000000001
  0
ARC
  5
286
100
AcDbEntity
  8
cut
 62
256
370
-1
  6
ByLayer
100
AcDbCircle
 10
683.3701124565350256
 20
-400.6066017177982985
 30
0.0
 40
10.0
100
AcDbArc
 50
295.528779365508683
 51
154.4712190660087572
  0
ARC
  5
287
100
AcDbEntity
  8
cut
 62
256
370
-1
  6
ByLayer
100
AcDbCircle
 10
669.8345785506023731
 20
-394.1421356237310647
 30
0.0
 40
5.0
100
AcDbArc
 50
224.9999999999999716
 51
334.4712237714558682
  0
ARC
  5
288
100
AcDbEntity
  8
cut
 62
256
370
-1
  6
ByLayer
100
AcDbCircle
 10
689.8345785506021457
 20
-414.1421356237311215
 30
0.0
 40
5.0
100
AcDbArc
 50
115.5287793655087256
 51
225.0000000000000568
  0
CIRCLE
  5
289
100
AcDbEntity
100
AcDbCircle
  8
cut
 62
256
370
-1
  6
ByLayer
 10
731.5534219889179894
 20
-272.1390578274167069
 30
0.0
 40
2.5
  0
CIRCLE
  5
28A
100
AcDbEntity
100
AcDbCircle
  8
cut
 62
256
370
-1
  6
ByLayer
 10
733.482854968148331
 20
-260.2843835805642811
 30
0.0
 40
2.5
  0
CIRCLE
  5
28B
100
AcDbEntity
100
AcDbCircle
  8
cut
 62
256
370
-1
  6
ByLayer
 10
735.4330997342210594
 20
-248.4489039259616447
 30
0.0
 40
2.5
  0
CIRCLE
  5
28C
100
AcDbEntity
100
AcDbCircle
  8
cut
 62
256
370
-1
  6
ByLayer
 10
737.3275707217030686
 20
-236.5794149521344423
 30
0.0
 40
2.5
  0
CIRCLE
  5
28D
100
AcDbEntity
100
AcDbCircle
  8
cut
 62
256
370
-1
  6
ByLayer
 10
769.0732335735217475
 20
-278.2579002319403116
 30
0.0
 40
2.5
  0
CIRCLE
  5
28E
100
AcDbEntity
100
AcDbCircle
  8
cut
 62
256
370
-1
  6
ByLayer
 10
770.9731326447868014
 20
-266.412709631356222
 30
0.0
 40
2.5
  0
CIRCLE
  5
28F
100
AcDbEntity
100
AcDbCircle
  8
cut
 62
256
370
-1
  6
ByLayer
 10
772.9246771274670209
 20
-254.5591919570335335
 30
0.0
 40
2.5
  0
CIRCLE
  5
290
100
AcDbEntity
100
AcDbCircle
  8
cut
 62
256
370
-1
  6
ByLayer
 10
774.8574797833246066
 20
-242.6855423873795701
 30
0.0
 40
2.5
  0
CIRCLE
  5
291
100
AcDbEntity
100
AcDbCircle
  8
cut
 62
256
370
-1
  6
ByLayer
 10
754.6740201759153024
 20
-247.5321536848501012
 30
0.0
 40
3.0
  0
CIRCLE
  5
292
100
AcDbEntity
100
AcDbCircle
  8
cut
 62
256
370
-1
  6
ByLayer
 10
748.592144384168023
 20
-280.1139995259267153
 30
0.0
 40
11.0
  0
CIRCLE
  5
293
100
AcDbEntity
100
AcDbCircle
  8
cut
 62
256
370
-1
  6
ByLayer
 10
741.3976801447394109
 20
-268.1031842202287976
 30
0.0
 40
1.6000000000000001
  0
CIRCLE
  5
294
100
AcDbEntity
100
AcDbCircle
  8
cut
 62
256
370
-1
  6
ByLayer
 10
755.7866086235962939
 20
-292.1248148316245192
 30
0.0
 40
1.6000000000000001
  0
CIRCLE
  5
295
100
AcDbEntity
100
AcDbCircle
  8
cut
 62
256
370
-1
  6
ByLayer
 10
735.09155842476423
 20
-172.094964611768944
 30
0.0
 40
2.5
  0
CIRCLE
  5
296
100
AcDbEntity
100
AcDbCircle
  8
cut
 62
256
370
-1
  6
ByLayer
 10
732.3375346332719573
 20
-160.4043116755032372
 30
0.0
 40
2.5
  0
CIRCLE
  5
297
100
AcDbEntity
100
AcDbCircle
  8
cut
 62
256
370
-1
  6
ByLayer
 10
729.6100838781233051
 20
-148.7234279041290677
 30
0.0
 40
2.5
  0
CIRCLE
  5
298
100
AcDbEntity
100
AcDbCircle
  8
cut
 62
256
370
-1
  6
ByLayer
 10
726.8180900674706209
 20
-137.0324673198362575
 30
0.0
 40
2.5
  0
CIRCLE
  5
299
100
AcDbEntity
100
AcDbCircle
  8
cut
 62
256
370
-1
  6
ByLayer
 10
772.0969240249237373
 20
-163.3898275930833393
 30
0.0
 40
2.5
  0
CIRCLE
  5
29A
100
AcDbEntity
100
AcDbCircle
  8
cut
 62
256
370
-1
  6
ByLayer
 10
769.3192436946521866
 20
-151.7192385407695951
 30
0.0
 40
2.5
  0
CIRCLE
  5
29B
100
AcDbEntity
100
AcDbCircle
  8
cut
 62
256
370
-1
  6
ByLayer
 10
766.5860908697759442
 20
-140.0211924321567381
 30
0.0
 40
2.5
  0
CIRCLE
  5
29C
100
AcDbEntity
100
AcDbCircle
  8
cut
 62
256
370
-1
  6
ByLayer
 10
763.8279187118907885
 20
-128.3117190641140155
 30
0.0
 40
2.5
  0
CIRCLE
  5
29D
100
AcDbEntity
100
AcDbCircle
  8
cut
 62
256
370
-1
  6
ByLayer
 10
747.0355513319925649
 20
-140.5132796434505451
 30
0.0
 40
3.0
  0
CIRCLE
  5
29E
100
AcDbEntity
100
AcDbCircle
  8
cut
 62
256
370
-1
  6
ByLayer
 10
753.8851633679746556
 20
-172.9424132506630087
 30
0.0
 40
11.0
  0
CIRCLE
  5
29F
100
AcDbEntity
100
AcDbCircle
  8
cut
 62
256
370
-1
  6
ByLayer
 10
742.6420050830948867
 20
-164.5990690901278981
 30
0.0
 40
1.6000000000000001
  0
CIRCLE
  5
2A0
100
AcDbEntity
100
AcDbCircle
  8
cut
 62
256
370
-1
  6
ByLayer
 10
765.1283216528545381
 20
-181.2857574111983467
 30
0.0
 40
1.6000000000000001
  0
CIRCLE
  5
2A1
100
AcDbEntity
100
AcDbCircle
  8
cut
 62
256
370
-1
  6
ByLayer
 10
700.0751532814583697
 20
-78.3122883457357375
 30
0.0
 40
2.5
  0
CIRCLE
  5
2A2
100
AcDbEntity
100
AcDbCircle
  8
cut
 62
256
370
-1
  6
ByLayer
 10
693.056947876210188
 20
-68.5654526535699347
 30
0.0
 40
2.5
  0
CIRCLE
  5
2A3
100
AcDbEntity
100
AcDbCircle
  8
cut
 62
256
370
-1
  6
ByLayer
 10
686.0670312529090324
 20
-58.8174734321414121
 30
0.0
 40
2.5
  0
CIRCLE
  5
2A4
100
AcDbEntity
100
AcDbCircle
  8
cut
 62
256
370
-1
  6
ByLayer
 10
679.0136283923064866
 20
-49.0848840075195483
 30
0.0
 40
2.5
  0
CIRCLE
  5
2A5
100
AcDbEntity
100
AcDbCircle
  8
cut
 62
256
370
-1
  6
ByLayer
 10
730.9323414390237303
 20
-56.1084501026712701
 30
0.0
 40
2.5
  0
CIRCLE
  5
2A6
100
AcDbEntity
100
AcDbCircle
  8
cut
 62
256
370
-1
  6
ByLayer
 10
723.8999583577648309
 20
-46.3892039876894273
 30
0.0
 40
2.5
  0
CIRCLE
  5
2A7
100
AcDbEntity
100
AcDbCircle
  8
cut
 62
256
370
-1
  6
ByLayer
 10
716.8982059668272768
 20
-36.6275509217709043
 30
0.0
 40
2.5
  0
CIRCLE
  5
2A8
100
AcDbEntity
100
AcDbCircle
  8
cut
 62
256
370
-1
  6
ByLayer
 10
709.8689657033446565
 20
-26.8649149289837226
 30
0.0
 40
2.5
  0
CIRCLE
  5
2A9
100
AcDbEntity
100
AcDbCircle
  8
cut
 62
256
370
-1
  6
ByLayer
 10
699.0241762613575247
 20
-44.5638477994044422
 30
0.0
 40
3.0
  0
CIRCLE
  5
2AA
100
AcDbEntity
100
AcDbCircle
  8
cut
 62
256
370
-1
  6
ByLayer
 10
717.7624847844786018
 20
-71.9032275518832478
 30
0.0
 40
11.0
  0
CIRCLE
  5
2AB
100
AcDbEntity
100
AcDbCircle
  8
cut
 62
256
370
-1
  6
ByLayer
 10
704.1823013835363554
 20
-68.4975530523490477
 30
0.0
 40
1.6000000000000001
  0
CIRCLE
  5
2AC
100
AcDbEntity
100
AcDbCircle
  8
cut
 62
256
370
-1
  6
ByLayer
 10
731.3426681854203935
 20
-75.3089020514172205
 30
0.0
 40
1.6000000000000001
  0
ARC
  5
2AD
100
AcDbEntity
  8
cut
 62
256
370
-1
  6
ByLayer
100
AcDbCircle
 10
669.227976832804643
 20
-11.697872065197231
 30
0.0
 40
10.0
100
AcDbArc
 50
25.5287793655087043
 51
244.4712206344910896
  0
ARC
  5
2AE
100
AcDbEntity
  8
cut
 62
256
370
-1
  6
ByLayer
100
AcDbCircle
 10
682.7635107387375228
 20
-5.2334059711300256
 30
0.0
 40
5.0
100
AcDbArc
 50
205.5287793655087398
 51
315.0000000000000568
  0
ARC
  5
2AF
100
AcDbEntity
  8
cut
 62
256
370
-1
  6
ByLayer
100
AcDbCircle
 10
662.7635107387375228
 20
-25.233405971130054
 30
0.0
 40
5.0
100
AcDbArc
 50
314.9999999999999432
 51
64.4712206344914023
  0
LINE
  5
2B0
100
AcDbEntity
100
AcDbLine
  8
cut
 62
256
370
-1
  6
ByLayer
 10
686.2990446446697206
 20
-417.6776695296637172
 30
0.0
 11
693.9767141743332104
 21
-425.3553390593275481
 31
0.0
  0
LINE
  5
2B1
100
AcDbEntity
100
AcDbLine
  8
cut
 62
256
370
-1
  6
ByLayer
 10
658.621375115005776
 20
-390.0000000000001137
 30
0.0
 11
666.2990446446694932
 21
-397.6776695296638877
 31
0.0
  0
ARC
  5
2B2
100
AcDbEntity
  8
cut
 62
256
370
-1
  6
ByLayer
100
AcDbCircle
 10
481.8446798183690589
 20
-213.2233047033630271
 30
0.0
 40
250.0000000000000284
100
AcDbArc
 50
314.9999999999999432
 51
44.9999999999999503
  0
LINE
  5
2B3
100
AcDbEntity
100
AcDbLine
  8
cut
 62
256
370
-1
  6
ByLayer
 10
658.6213751150063445
 20
-36.4466094067263384
 30
0.0
 11
666.2990446446701753
 21
-28.7689398770625644
 31
0.0
  0
ARC
  5
2B4
100
AcDbEntity
  8
cut
 62
256
370
-1
  6
ByLayer
100
AcDbCircle
 10
481.8446798183690589
 20
-213.2233047033630271
 30
0.0
 40
300.0000000000000568
100
AcDbArc
 50
314.9999999999999432
 51
44.9999999999999503
  0
LINE
  5
2B5
100
AcDbEntity
100
AcDbLine
  8
cut
 62
256
370
-1
  6
ByLayer
 10
686.299044644669948
 20
-8.7689398770627349
 30
0.0
 11
693.9767141743338925
 21
-1.0912703473991883
 31
0.0
  0
CIRCLE
  5
2B6
100
AcDbEntity
100
AcDbCircle
  8
cut
 62
256
370
-1
  6
ByLayer
 10
-37.4135391229846164
 20
-430.0121763475651164
 30
0.0
 40
2.5
  0
CIRCLE
  5
2B7
100
AcDbEntity
100
AcDbCircle
  8
cut
 62
256
370
-1
  6
ByLayer
 10
-27.1183859555380877
 20
-423.8536068623703841
 30
0.0
 40
2.5
  0
CIRCLE
  5
2B8
100
AcDbEntity
100
AcDbCircle
  8
cut
 62
256
370
-1
  6
ByLayer
 10
-16.7836567331382867
 20
-417.7292473837767943
 30
0.0
 40
2.5
  0
CIRCLE
  5
2B9
100
AcDbEntity
100
AcDbCircle
  8
cut
 62
256
370
-1
  6
ByLayer
 10
-6.4455526906830301
 20
-411.5775902885861797
 30
0.0
 40
2.5
  0
CIRCLE
  5
2BA
100
AcDbEntity
100
AcDbCircle
  8
cut
 62
256
370
-1
  6
ByLayer
 10
52.5238582103509088
 20
-358.4923792518143273
 30
0.0
 40
2.5
  0
CIRCLE
  5
2BB
100
AcDbEntity
100
AcDbCircle
  8
cut
 62
256
370
-1
  6
ByLayer
 10
59.6785569967703395
 20
-348.8628184040512679
 30
0.0
 40
2.5
  0
CIRCLE
  5
2BC
100
AcDbEntity
100
AcDbCircle
  8
cut
 62
256
370
-1
  6
ByLayer
 10
66.8829108930858638
 20
-339.2497183806454473
 30
0.0
 40
2.5
  0
CIRCLE
  5
2BD
100
AcDbEntity
100
AcDbCircle
  8
cut
 62
256
370
-1
  6
ByLayer
 10
74.0799363709620593
 20
-329.61010716025703
 30
0.0
 40
2.5
  0
ARC
  5
2BE
100
AcDbEntity
  8
cut
 62
256
370
-1
  6
ByLayer
100
AcDbCircle
 10
-44.1579297209809738
 20
-428.9279897252416731
 30
0.0
 40
2.5
100
AcDbArc
 50
116.1574977230807377
 51
207.2423363349714975
  0
LINE
  5
2BF
100
AcDbEntity
100
AcDbLine
  8
cut
 62
256
370
-1
  6
ByLayer
 10
-43.1757797386991342
 20
-436.2970153307878718
 30
0.0
 11
-46.3806256634865122
 21
-430.0723772239366554
 31
0.0
  0
ARC
  5
2C0
100
AcDbEntity
  8
cut
 62
256
370
-1
  6
ByLayer
100
AcDbCircle
 10
-40.9530837961935958
 20
-435.1526278320928895
 30
0.0
 40
2.5
100
AcDbArc
 50
207.2423363349714975
 51
296.1830262813408012
  0
ARC
  5
2C1
100
AcDbEntity
  8
cut
 62
256
370
-1
  6
ByLayer
100
AcDbCircle
 10
-172.2219906604650532
 20
-168.1793630832437145
 30
0.0
 40
300.0000000000000568
100
AcDbArc
 50
296.1830262813450076
 51
327.8177505374038674
  0
ARC
  5
2C2
100
AcDbEntity
  8
cut
 62
256
370
-1
  6
ByLayer
100
AcDbCircle
 10
79.5695778327365133
 20
-326.6320564517484399
 30
0.0
 40
2.5
100
AcDbArc
 50
327.8177505374009115
 51
56.7584404837772993
  0
LINE
  5
2C3
100
AcDbEntity
100
AcDbLine
  8
cut
 62
256
370
-1
  6
ByLayer
 10
80.9400028995312368
 20
-324.5411391563250731
 30
0.0
 11
75.0844095966097029
 21
-320.703277247179642
 31
0.0
  0
ARC
  5
2C4
100
AcDbEntity
  8
cut
 62
256
370
-1
  6
ByLayer
100
AcDbCircle
 10
-172.2219906604650532
 20
-168.1793630832437145
 30
0.0
 40
288.0000000000000568
100
AcDbArc
 50
296.1574977230783929
 51
327.8432790956704821
  0
ARC
  5
2C5
100
AcDbEntity
  8
cut
 62
256
370
-1
  6
ByLayer
100
AcDbCircle
 10
73.7139845298149794
 20
-322.7941945426030088
 30
0.0
 40
2.5
100
AcDbArc
 50
56.7584404837772993
 51
147.8432790956718748
  0
CIRCLE
  5
2C6
100
AcDbEntity
100
AcDbCircle
  8
cut
 62
256
370
-1
  6
ByLayer
 10
-40.7843590810002752
 20
-415.1726498277282076
 30
0.0
 40
2.5
  0
CIRCLE
  5
2C7
100
AcDbEntity
100
AcDbCircle
  8
cut
 62
256
370
-1
  6
ByLayer
 10
-30.4629569329597416
 20
-409.0306085694204512
 30
0.0
 40
2.5
  0
CIRCLE
  5
2C8
100
AcDbEntity
100
AcDbCircle
  8
cut
 62
256
370
-1
  6
ByLayer
 10
-20.1428810411753147
 20
-402.9168481153368475
 30
0.0
 40
2.5
  0
CIRCLE
  5
2C9
100
AcDbEntity
100
AcDbCircle
  8
cut
 62
256
370
-1
  6
ByLayer
 10
-9.8326034118924781
 20
-396.7385017322565091
 30
0.0
 40
2.5
  0
CIRCLE
  5
2CA
100
AcDbEntity
100
AcDbCircle
  8
cut
 62
256
370
-1
  6
ByLayer
 10
38.1279242928460462
 20
-353.5756488495503618
 30
0.0
 40
2.5
  0
CIRCLE
  5
2CB
100
AcDbEntity
100
AcDbCircle
  8
cut
 62
256
370
-1
  6
ByLayer
 10
45.3131990537813181
 20
-343.9513130423275697
 30
0.0
 40
2.5
  0
CIRCLE
  5
2CC
100
AcDbEntity
100
AcDbCircle
  8
cut
 62
256
370
-1
  6
ByLayer
 10
52.508071108937429
 20
-334.353612827586403
 30
0.0
 40
2.5
  0
CIRCLE
  5
2CD
100
AcDbEntity
100
AcDbCircle
  8
cut
 62
256
370
-1
  6
ByLayer
 10
59.6691747849233707
 20
-324.6999926276823771
 30
0.0
 40
2.5
  0
ARC
  5
2CE
100
AcDbEntity
  8
cut
 62
256
370
-1
  6
ByLayer
100
AcDbCircle
 10
-47.5517567626067148
 20
-413.9618847878450651
 30
0.0
 40
2.5
100
AcDbArc
 50
115.4766031822246362
 51
206.7247287742696358
  0
LINE
  5
2CF
100
AcDbEntity
100
AcDbLine
  8
cut
 62
256
370
-1
  6
ByLayer
 10
-46.6360415739535483
 20
-421.3398315016769402
 30
0.0
 11
-49.7847002118735418
 21
-415.0861461241794359
 31
0.0
  0
ARC
  5
2D0
100
AcDbEntity
  8
cut
 62
256
370
-1
  6
ByLayer
100
AcDbCircle
 10
-44.4030981246867213
 20
-420.2155701653424558
 30
0.0
 40
2.5
100
AcDbArc
 50
206.7247287742696358
 51
295.5102764229106924
  0
ARC
  5
2D1
100
AcDbEntity
  8
cut
 62
256
370
-1
  6
ByLayer
100
AcDbCircle
 10
-156.1627352011308858
 20
-186.0147300290581143
 30
0.0
 40
262.0
100
AcDbArc
 50
295.5102764229127956
 51
328.4912159575308124
  0
ARC
  5
2D2
100
AcDbEntity
  8
cut
 62
256
370
-1
  6
ByLayer
100
AcDbCircle
 10
65.0765977316771114
 20
-321.6370274710577633
 30
0.0
 40
2.5
100
AcDbArc
 50
328.4912159575262081
 51
57.2767636061739225
  0
LINE
  5
2D3
100
AcDbEntity
100
AcDbLine
  8
cut
 62
256
370
-1
  6
ByLayer
 10
66.428051611844694
 20
-319.533798427472675
 30
0.0
 11
60.5376504376840785
 21
-315.748853774466852
 31
0.0
  0
ARC
  5
2D4
100
AcDbEntity
  8
cut
 62
256
370
-1
  6
ByLayer
100
AcDbCircle
 10
-156.1627352011308858
 20
-186.0147300290581143
 30
0.0
 40
250.0000000000000284
100
AcDbArc
 50
295.4766031822199466
 51
328.5248891982237183
  0
ARC
  5
2D5
100
AcDbEntity
  8
cut
 62
256
370
-1
  6
ByLayer
100
AcDbCircle
 10
59.1861965575162685
 20
-317.8520828180519402
 30
0.0
 40
2.5
100
AcDbArc
 50
57.2767636061739225
 51
148.5248891982228088
  0
LINE
  5
2D6
100
AcDbEntity
100
AcDbLine
  8
frame
 62
256
370
-1
  6
ByLayer
 10
81.6854733662928538
 20
-327.9635916901395376
 30
0.0
 11
-39.8499837385107867
 21
-437.3961006451085041
 31
0.0
  0
CIRCLE
  5
2D7
100
AcDbEntity
100
AcDbCircle
  8
cut
 62
256
370
-1
  6
ByLayer
 10
-34.5790061967709335
 20
-379.5771745399787278
 30
0.0
 40
2.5
  0
CIRCLE
  5
2D8
100
AcDbEntity
100
AcDbCircle
  8
cut
 62
256
370
-1
  6
ByLayer
 10
-28.4204367115761443
 20
-369.2820213725321992
 30
0.0
 40
2.5
  0
CIRCLE
  5
2D9
100
AcDbEntity
100
AcDbCircle
  8
cut
 62
256
370
-1
  6
ByLayer
 10
-22.2960772329826113
 20
-358.9472921501323981
 30
0.0
 40
2.5
  0
CIRCLE
  5
2DA
100
AcDbEntity
100
AcDbCircle
  8
cut
 62
256
370
-1
  6
ByLayer
 10
-16.1444201377919399
 20
-348.6091881076771415
 30
0.0
 40
2.5
  0
CIRCLE
  5
2DB
100
AcDbEntity
100
AcDbCircle
  8
cut
 62
256
370
-1
  6
ByLayer
 10
36.9407908989799125
 20
-289.6397772066432026
 30
0.0
 40
2.5
  0
CIRCLE
  5
2DC
100
AcDbEntity
100
AcDbCircle
  8
cut
 62
256
370
-1
  6
ByLayer
 10
46.570351746742972
 20
-282.4850784202237719
 30
0.0
 40
2.5
  0
CIRCLE
  5
2DD
100
AcDbEntity
100
AcDbCircle
  8
cut
 62
256
370
-1
  6
ByLayer
 10
56.1834517701488494
 20
-275.2807245239082476
 30
0.0
 40
2.5
  0
CIRCLE
  5
2DE
100
AcDbEntity
100
AcDbCircle
  8
cut
 62
256
370
-1
  6
ByLayer
 10
65.8230629905372098
 20
-268.0836990460320521
 30
0.0
 40
2.5
  0
ARC
  5
2DF
100
AcDbEntity
  8
cut
 62
256
370
-1
  6
ByLayer
100
AcDbCircle
 10
-33.4948195744474333
 20
-386.3215651379750852
 30
0.0
 40
2.5
100
AcDbArc
 50
242.7576636650285593
 51
333.8425022769192196
  0
LINE
  5
2E0
100
AcDbEntity
100
AcDbLine
  8
cut
 62
256
370
-1
  6
ByLayer
 10
-40.863845179993632
 20
-385.3394151556932457
 30
0.0
 11
-34.6392070731424155
 21
-388.5442610804806236
 31
0.0
  0
ARC
  5
2E1
100
AcDbEntity
  8
cut
 62
256
370
-1
  6
ByLayer
100
AcDbCircle
 10
-39.7194576812987634
 20
-383.1167192131877073
 30
0.0
 40
2.5
100
AcDbArc
 50
153.8169737186592272
 51
242.7576636650285593
  0
ARC
  5
2E2
100
AcDbEntity
  8
cut
 62
256
370
-1
  6
ByLayer
100
AcDbCircle
 10
227.2538070675507242
 20
-514.3856260774588236
 30
0.0
 40
300.0000000000000568
100
AcDbArc
 50
122.1822494625961326
 51
153.8169737186549355
  0
ARC
  5
2E3
100
AcDbEntity
  8
cut
 62
256
370
-1
  6
ByLayer
100
AcDbCircle
 10
68.8011136990460273
 20
-262.5940575842575981
 30
0.0
 40
2.5
100
AcDbArc
 50
33.2415595162227007
 51
122.1822494625990743
  0
LINE
  5
2E4
100
AcDbEntity
100
AcDbLine
  8
cut
 62
256
370
-1
  6
ByLayer
 10
70.8920309944692235
 20
-261.2236325174628746
 30
0.0
 11
74.729892903614882
 21
-267.0792258203844085
 31
0.0
  0
ARC
  5
2E5
100
AcDbEntity
  8
cut
 62
256
370
-1
  6
ByLayer
100
AcDbCircle
 10
227.2538070675507242
 20
-514.3856260774588236
 30
0.0
 40
288.0000000000000568
100
AcDbArc
 50
122.1567209043294753
 51
153.8425022769215502
  0
ARC
  5
2E6
100
AcDbEntity
  8
cut
 62
256
370
-1
  6
ByLayer
100
AcDbCircle
 10
72.6389756081914584
 20
-268.449650887179132
 30
0.0
 40
2.5
100
AcDbArc
 50
302.1567209043281537
 51
33.2415595162227007
  0
CIRCLE
  5
2E7
100
AcDbEntity
100
AcDbCircle
  8
cut
 62
256
370
-1
  6
ByLayer
 10
-19.7394796769339109
 20
-382.9479944979943866
 30
0.0
 40
2.5
  0
CIRCLE
  5
2E8
100
AcDbEntity
100
AcDbCircle
  8
cut
 62
256
370
-1
  6
ByLayer
 10
-13.5974384186262114
 20
-372.626592349953853
 30
0.0
 40
2.5
  0
CIRCLE
  5
2E9
100
AcDbEntity
100
AcDbCircle
  8
cut
 62
256
370
-1
  6
ByLayer
 10
-7.4836779645426077
 20
-362.3065164581694262
 30
0.0
 40
2.5
  0
CIRCLE
  5
2EA
100
AcDbEntity
100
AcDbCircle
  8
cut
 62
256
370
-1
  6
ByLayer
 10
-1.3053315814622692
 20
-351.9962388288865895
 30
0.0
 40
2.5
  0
CIRCLE
  5
2EB
100
AcDbEntity
100
AcDbCircle
  8
cut
 62
256
370
-1
  6
ByLayer
 10
41.857521301243878
 20
-304.0357111241480652
 30
0.0
 40
2.5
  0
CIRCLE
  5
2EC
100
AcDbEntity
100
AcDbCircle
  8
cut
 62
256
370
-1
  6
ByLayer
 10
51.4818571084667838
 20
-296.8504363632127365
 30
0.0
 40
2.5
  0
CIRCLE
  5
2ED
100
AcDbEntity
100
AcDbCircle
  8
cut
 62
256
370
-1
  6
ByLayer
 10
61.0795573232078368
 20
-289.6555643080566824
 30
0.0
 40
2.5
  0
CIRCLE
  5
2EE
100
AcDbEntity
100
AcDbCircle
  8
cut
 62
256
370
-1
  6
ByLayer
 10
70.7331775231118627
 20
-282.4944606320707408
 30
0.0
 40
2.5
  0
ARC
  5
2EF
100
AcDbEntity
  8
cut
 62
256
370
-1
  6
ByLayer
100
AcDbCircle
 10
-18.5287146370507116
 20
-389.7153921796008262
 30
0.0
 40
2.5
100
AcDbArc
 50
243.2752712257304211
 51
334.5233968177753923
  0
LINE
  5
2F0
100
AcDbEntity
100
AcDbLine
  8
cut
 62
256
370
-1
  6
ByLayer
 10
-25.9066613508827004
 20
-388.7996769909476598
 30
0.0
 11
-19.6529759733851961
 21
-391.9483356288676532
 31
0.0
  0
ARC
  5
2F1
100
AcDbEntity
  8
cut
 62
256
370
-1
  6
ByLayer
100
AcDbCircle
 10
-24.7824000145482159
 20
-386.5667335416808328
 30
0.0
 40
2.5
100
AcDbArc
 50
154.4897235770892507
 51
243.2752712257304211
  0
ARC
  5
2F2
100
AcDbEntity
  8
cut
 62
256
370
-1
  6
ByLayer
100
AcDbCircle
 10
209.4184401217362392
 20
-498.3263706181251109
 30
0.0
 40
262.0
100
AcDbArc
 50
121.5087840424691592
 51
154.4897235770872328
  0
ARC
  5
2F3
100
AcDbEntity
  8
cut
 62
256
370
-1
  6
ByLayer
100
AcDbCircle
 10
73.7961426797364766
 20
-277.0870376853170001
 30
0.0
 40
2.5
100
AcDbArc
 50
32.7232363938261273
 51
121.5087840424737635
  0
LINE
  5
2F4
100
AcDbEntity
100
AcDbLine
  8
cut
 62
256
370
-1
  6
ByLayer
 10
75.8993717233217922
 20
-275.7355838051494175
 30
0.0
 11
79.6843163763273878
 21
-281.6259849793100329
 31
0.0
  0
ARC
  5
2F5
100
AcDbEntity
  8
cut
 62
256
370
-1
  6
ByLayer
100
AcDbCircle
 10
209.4184401217362392
 20
-498.3263706181251109
 30
0.0
 40
250.0000000000000284
100
AcDbArc
 50
121.4751108017762675
 51
154.5233968177800534
  0
ARC
  5
2F6
100
AcDbEntity
  8
cut
 62
256
370
-1
  6
ByLayer
100
AcDbCircle
 10
77.5810873327420722
 20
-282.9774388594778429
 30
0.0
 40
2.5
100
AcDbArc
 50
301.4751108017771344
 51
32.7232363938261273
  0
LINE
  5
2F7
100
AcDbEntity
100
AcDbLine
  8
frame
 62
256
370
-1
  6
ByLayer
 10
67.4695784606547022
 20
-260.4781620507013145
 30
0.0
 11
-41.9629304943142643
 21
-382.0136191555047844
 31
0.0
  0
CIRCLE
  5
2F8
100
AcDbEntity
100
AcDbCircle
  8
cut
 62
256
370
-1
  6
ByLayer
 10
-36.3364002730546787
 20
-535.5717836406984134
 30
0.0
 40
2.5
  0
CIRCLE
  5
2F9
100
AcDbEntity
100
AcDbCircle
  8
cut
 62
256
370
-1
  6
ByLayer
 10
-26.0412471056081536
 20
-529.4132141555037379
 30
0.0
 40
2.5
  0
CIRCLE
  5
2FA
100
AcDbEntity
100
AcDbCircle
  8
cut
 62
256
370
-1
  6
ByLayer
 10
-15.7065178832083525
 20
-523.2888546769102049
 30
0.0
 40
2.5
  0
CIRCLE
  5
2FB
100
AcDbEntity
100
AcDbCircle
  8
cut
 62
256
370
-1
  6
ByLayer
 10
-5.3684138407530959
 20
-517.1371975817195334
 30
0.0
 40
2.5
  0
CIRCLE
  5
2FC
100
AcDbEntity
100
AcDbCircle
  8
cut
 62
256
370
-1
  6
ByLayer
 10
53.6009970602808465
 20
-464.0519865449476811
 30
0.0
 40
2.5
  0
CIRCLE
  5
2FD
100
AcDbEntity
100
AcDbCircle
  8
cut
 62
256
370
-1
  6
ByLayer
 10
60.7556958467002772
 20
-454.4224256971846216
 30
0.0
 40
2.5
  0
CIRCLE
  5
2FE
100
AcDbEntity
100
AcDbCircle
  8
cut
 62
256
370
-1
  6
ByLayer
 10
67.9600497430158015
 20
-444.809325673778801
 30
0.0
 40
2.5
  0
CIRCLE
  5
2FF
100
AcDbEntity
100
AcDbCircle
  8
cut
 62
256
370
-1
  6
ByLayer
 10
75.157075220891997
 20
-435.1697144533903838
 30
0.0
 40
2.5
  0
ARC
  5
300
100
AcDbEntity
  8
cut
 62
256
370
-1
  6
ByLayer
100
AcDbCircle
 10
-43.0807908710510361
 20
-534.4875970183750269
 30
0.0
 40
2.5
100
AcDbArc
 50
116.1574977230807377
 51
207.2423363349714975
  0
LINE
  5
301
100
AcDbEntity
100
AcDbLine
  8
cut
 62
256
370
-1
  6
ByLayer
 10
-42.0986408887691965
 20
-541.8566226239212256
 30
0.0
 11
-45.3034868135565745
 21
-535.6319845170700091
 31
0.0
  0
ARC
  5
302
100
AcDbEntity
  8
cut
 62
256
370
-1
  6
ByLayer
100
AcDbCircle
 10
-39.8759449462636582
 20
-540.7122351252262433
 30
0.0
 40
2.5
100
AcDbArc
 50
207.2423363349714975
 51
296.1830262813408012
  0
ARC
  5
303
100
AcDbEntity
  8
cut
 62
256
370
-1
  6
ByLayer
100
AcDbCircle
 10
-171.1448518105351297
 20
-273.7389703763770967
 30
0.0
 40
300.0000000000000568
100
AcDbArc
 50
296.1830262813450076
 51
327.8177505374038674
  0
ARC
  5
304
100
AcDbEntity
  8
cut
 62
256
370
-1
  6
ByLayer
100
AcDbCircle
 10
80.646716682666451
 20
-432.1916637448817937
 30
0.0
 40
2.5
100
AcDbArc
 50
327.8177505374009115
 51
56.7584404837772993
  0
LINE
  5
305
100
AcDbEntity
100
AcDbLine
  8
cut
 62
256
370
-1
  6
ByLayer
 10
82.0171417494611745
 20
-430.1007464494584269
 30
0.0
 11
76.1615484465396406
 21
-426.2628845403129958
 31
0.0
  0
ARC
  5
306
100
AcDbEntity
  8
cut
 62
256
370
-1
  6
ByLayer
100
AcDbCircle
 10
-171.1448518105351297
 20
-273.7389703763770967
 30
0.0
 40
288.0000000000000568
100
AcDbArc
 50
296.1574977230783929
 51
327.8432790956704821
  0
ARC
  5
307
100
AcDbEntity
  8
cut
 62
256
370
-1
  6
ByLayer
100
AcDbCircle
 10
74.7911233797449171
 20
-428.3538018357363626
 30
0.0
 40
2.5
100
AcDbArc
 50
56.7584404837772993
 51
147.8432790956718748
  0
CIRCLE
  5
308
100
AcDbEntity
100
AcDbCircle
  8
cut
 62
256
370
-1
  6
ByLayer
 10
-39.7072202310703375
 20
-520.7322571208615045
 30
0.0
 40
2.5
  0
CIRCLE
  5
309
100
AcDbEntity
100
AcDbCircle
  8
cut
 62
256
370
-1
  6
ByLayer
 10
-29.3858180830298075
 20
-514.590215862553805
 30
0.0
 40
2.5
  0
CIRCLE
  5
30A
100
AcDbEntity
100
AcDbCircle
  8
cut
 62
256
370
-1
  6
ByLayer
 10
-19.0657421912453806
 20
-508.4764554084702013
 30
0.0
 40
2.5
  0
CIRCLE
  5
30B
100
AcDbEntity
100
AcDbCircle
  8
cut
 62
256
370
-1
  6
ByLayer
 10
-8.755464561962544
 20
-502.2981090253898628
 30
0.0
 40
2.5
  0
CIRCLE
  5
30C
100
AcDbEntity
100
AcDbCircle
  8
cut
 62
256
370
-1
  6
ByLayer
 10
39.2050631427759839
 20
-459.1352561426837156
 30
0.0
 40
2.5
  0
CIRCLE
  5
30D
100
AcDbEntity
100
AcDbCircle
  8
cut
 62
256
370
-1
  6
ByLayer
 10
46.3903379037112558
 20
-449.5109203354609235
 30
0.0
 40
2.5
  0
CIRCLE
  5
30E
100
AcDbEntity
100
AcDbCircle
  8
cut
 62
256
370
-1
  6
ByLayer
 10
53.5852099588673667
 20
-439.9132201207197568
 30
0.0
 40
2.5
  0
CIRCLE
  5
30F
100
AcDbEntity
100
AcDbCircle
  8
cut
 62
256
370
-1
  6
ByLayer
 10
60.7463136348533084
 20
-430.2595999208157309
 30
0.0
 40
2.5
  0
ARC
  5
310
100
AcDbEntity
  8
cut
 62
256
370
-1
  6
ByLayer
100
AcDbCircle
 10
-46.4746179126767771
 20
-519.5214920809784189
 30
0.0
 40
2.5
100
AcDbArc
 50
115.4766031822246362
 51
206.7247287742696358
  0
LINE
  5
311
100
AcDbEntity
100
AcDbLine
  8
cut
 62
256
370
-1
  6
ByLayer
 10
-45.5589027240236106
 20
-526.899438794810294
 30
0.0
 11
-48.7075613619436041
 21
-520.6457534173127897
 31
0.0
  0
ARC
  5
312
100
AcDbEntity
  8
cut
 62
256
370
-1
  6
ByLayer
100
AcDbCircle
 10
-43.3259592747567837
 20
-525.7751774584758095
 30
0.0
 40
2.5
100
AcDbArc
 50
206.7247287742696358
 51
295.5102764229106924
  0
ARC
  5
313
100
AcDbEntity
  8
cut
 62
256
370
-1
  6
ByLayer
100
AcDbCircle
 10
-155.0855963512009623
 20
-291.574337322191468
 30
0.0
 40
262.0
100
AcDbArc
 50
295.5102764229127956
 51
328.4912159575308124
  0
ARC
  5
314
100
AcDbEntity
  8
cut
 62
256
370
-1
  6
ByLayer
100
AcDbCircle
 10
66.1537365816070491
 20
-427.196634764191117
 30
0.0
 40
2.5
100
AcDbArc
 50
328.4912159575262081
 51
57.2767636061739225
  0
LINE
  5
315
100
AcDbEntity
100
AcDbLine
  8
cut
 62
256
370
-1
  6
ByLayer
 10
67.5051904617746317
 20
-425.0934057206060288
 30
0.0
 11
61.6147892876140162
 21
-421.3084610676002058
 31
0.0
  0
ARC
  5
316
100
AcDbEntity
  8
cut
 62
256
370
-1
  6
ByLayer
100
AcDbCircle
 10
-155.0855963512009623
 20
-291.574337322191468
 30
0.0
 40
250.0000000000000284
100
AcDbArc
 50
295.4766031822199466
 51
328.5248891982237183
  0
ARC
  5
317
100
AcDbEntity
  8
cut
 62
256
370
-1
  6
ByLayer
100
AcDbCircle
 10
60.2633354074462062
 20
-423.411690111185294
 30
0.0
 40
2.5
100
AcDbArc
 50
57.2767636061739225
 51
148.5248891982228088
  0
LINE
  5
318
100
AcDbEntity
100
AcDbLine
  8
frame
 62
256
370
-1
  6
ByLayer
 10
82.7626122162227915
 20
-433.5231989832728914
 30
0.0
 11
-38.772844888580849
 21
-542.9557079382418578
 31
0.0
  0
CIRCLE
  5
319
100
AcDbEntity
100
AcDbCircle
  8
cut
 62
256
370
-1
  6
ByLayer
 10
-33.5018673468409958
 20
-485.1367818331120816
 30
0.0
 40
2.5
  0
CIRCLE
  5
31A
100
AcDbEntity
100
AcDbCircle
  8
cut
 62
256
370
-1
  6
ByLayer
 10
-27.3432978616462101
 20
-474.8416286656655529
 30
0.0
 40
2.5
  0
CIRCLE
  5
31B
100
AcDbEntity
100
AcDbCircle
  8
cut
 62
256
370
-1
  6
ByLayer
 10
-21.2189383830526772
 20
-464.5068994432657519
 30
0.0
 40
2.5
  0
CIRCLE
  5
31C
100
AcDbEntity
100
AcDbCircle
  8
cut
 62
256
370
-1
  6
ByLayer
 10
-15.0672812878620057
 20
-454.1687954008104953
 30
0.0
 40
2.5
  0
CIRCLE
  5
31D
100
AcDbEntity
100
AcDbCircle
  8
cut
 62
256
370
-1
  6
ByLayer
 10
38.0179297489098502
 20
-395.1993844997765564
 30
0.0
 40
2.5
  0
CIRCLE
  5
31E
100
AcDbEntity
100
AcDbCircle
  8
cut
 62
256
370
-1
  6
ByLayer
 10
47.6474905966729096
 20
-388.0446857133571257
 30
0.0
 40
2.5
  0
CIRCLE
  5
31F
100
AcDbEntity
100
AcDbCircle
  8
cut
 62
256
370
-1
  6
ByLayer
 10
57.2605906200787871
 20
-380.8403318170416014
 30
0.0
 40
2.5
  0
CIRCLE
  5
320
100
AcDbEntity
100
AcDbCircle
  8
cut
 62
256
370
-1
  6
ByLayer
 10
66.9002018404671475
 20
-373.6433063391654059
 30
0.0
 40
2.5
  0
ARC
  5
321
100
AcDbEntity
  8
cut
 62
256
370
-1
  6
ByLayer
100
AcDbCircle
 10
-32.4176807245174956
 20
-491.881172431108439
 30
0.0
 40
2.5
100
AcDbArc
 50
242.7576636650285593
 51
333.8425022769192196
  0
LINE
  5
322
100
AcDbEntity
100
AcDbLine
  8
cut
 62
256
370
-1
  6
ByLayer
 10
-39.7867063300636943
 20
-490.8990224488265994
 30
0.0
 11
-33.5620682232124778
 21
-494.1038683736139774
 31
0.0
  0
ARC
  5
323
100
AcDbEntity
  8
cut
 62
256
370
-1
  6
ByLayer
100
AcDbCircle
 10
-38.6423188313688257
 20
-488.6763265063210611
 30
0.0
 40
2.5
100
AcDbArc
 50
153.8169737186592272
 51
242.7576636650285593
  0
ARC
  5
324
100
AcDbEntity
  8
cut
 62
256
370
-1
  6
ByLayer
100
AcDbCircle
 10
228.3309459174806477
 20
-619.9452333705921774
 30
0.0
 40
300.0000000000000568
100
AcDbArc
 50
122.1822494625961326
 51
153.8169737186549355
  0
ARC
  5
325
100
AcDbEntity
  8
cut
 62
256
370
-1
  6
ByLayer
100
AcDbCircle
 10
69.8782525489759649
 20
-368.1536648773909519
 30
0.0
 40
2.5
100
AcDbArc
 50
33.2415595162227007
 51
122.1822494625990743
  0
LINE
  5
326
100
AcDbEntity
100
AcDbLine
  8
cut
 62
256
370
-1
  6
ByLayer
 10
71.9691698443991612
 20
-366.7832398105962284
 30
0.0
 11
75.8070317535448197
 21
-372.6388331135177623
 31
0.0
  0
ARC
  5
327
100
AcDbEntity
  8
cut
 62
256
370
-1
  6
ByLayer
100
AcDbCircle
 10
228.3309459174806477
 20
-619.9452333705921774
 30
0.0
 40
288.0000000000000568
100
AcDbArc
 50
122.1567209043294753
 51
153.8425022769215502
  0
ARC
  5
328
100
AcDbEntity
  8
cut
 62
256
370
-1
  6
ByLayer
100
AcDbCircle
 10
73.7161144581213961
 20
-374.0092581803124858
 30
0.0
 40
2.5
100
AcDbArc
 50
302.1567209043281537
 51
33.2415595162227007
  0
CIRCLE
  5
329
100
AcDbEntity
100
AcDbCircle
  8
cut
 62
256
370
-1
  6
ByLayer
 10
-18.6623408270039768
 20
-488.5076017911277404
 30
0.0
 40
2.5
  0
CIRCLE
  5
32A
100
AcDbEntity
100
AcDbCircle
  8
cut
 62
256
370
-1
  6
ByLayer
 10
-12.5202995686962772
 20
-478.1861996430872068
 30
0.0
 40
2.5
  0
CIRCLE
  5
32B
100
AcDbEntity
100
AcDbCircle
  8
cut
 62
256
370
-1
  6
ByLayer
 10
-6.4065391146126736
 20
-467.86612375130278
 30
0.0
 40
2.5
  0
CIRCLE
  5
32C
100
AcDbEntity
100
AcDbCircle
  8
cut
 62
256
370
-1
  6
ByLayer
 10
-0.2281927315323351
 20
-457.5558461220199433
 30
0.0
 40
2.5
  0
CIRCLE
  5
32D
100
AcDbEntity
100
AcDbCircle
  8
cut
 62
256
370
-1
  6
ByLayer
 10
42.9346601511738157
 20
-409.595318417281419
 30
0.0
 40
2.5
  0
CIRCLE
  5
32E
100
AcDbEntity
100
AcDbCircle
  8
cut
 62
256
370
-1
  6
ByLayer
 10
52.5589959583967214
 20
-402.4100436563460903
 30
0.0
 40
2.5
  0
CIRCLE
  5
32F
100
AcDbEntity
100
AcDbCircle
  8
cut
 62
256
370
-1
  6
ByLayer
 10
62.1566961731377745
 20
-395.2151716011900362
 30
0.0
 40
2.5
  0
CIRCLE
  5
330
100
AcDbEntity
100
AcDbCircle
  8
cut
 62
256
370
-1
  6
ByLayer
 10
71.8103163730418004
 20
-388.0540679252040945
 30
0.0
 40
2.5
  0
ARC
  5
331
100
AcDbEntity
  8
cut
 62
256
370
-1
  6
ByLayer
100
AcDbCircle
 10
-17.4515757871207775
 20
-495.27499947273418
 30
0.0
 40
2.5
100
AcDbArc
 50
243.2752712257304211
 51
334.5233968177753923
  0
LINE
  5
332
100
AcDbEntity
100
AcDbLine
  8
cut
 62
256
370
-1
  6
ByLayer
 10
-24.8295225009527663
 20
-494.3592842840810135
 30
0.0
 11
-18.5758371234552619
 21
-497.507942922001007
 31
0.0
  0
ARC
  5
333
100
AcDbEntity
  8
cut
 62
256
370
-1
  6
ByLayer
100
AcDbCircle
 10
-23.7052611646182818
 20
-492.1263408348141866
 30
0.0
 40
2.5
100
AcDbArc
 50
154.4897235770892507
 51
243.2752712257304211
  0
ARC
  5
334
100
AcDbEntity
  8
cut
 62
256
370
-1
  6
ByLayer
100
AcDbCircle
 10
210.4955789716661627
 20
-603.8859779112584647
 30
0.0
 40
262.0
100
AcDbArc
 50
121.5087840424691592
 51
154.4897235770872328
  0
ARC
  5
335
100
AcDbEntity
  8
cut
 62
256
370
-1
  6
ByLayer
100
AcDbCircle
 10
74.8732815296664143
 20
-382.6466449784503538
 30
0.0
 40
2.5
100
AcDbArc
 50
32.7232363938261273
 51
121.5087840424737635
  0
LINE
  5
336
100
AcDbEntity
100
AcDbLine
  8
cut
 62
256
370
-1
  6
ByLayer
 10
76.9765105732517299
 20
-381.2951910982827712
 30
0.0
 11
80.7614552262573255
 21
-387.1855922724433867
 31
0.0
  0
ARC
  5
337
100
AcDbEntity
  8
cut
 62
256
370
-1
  6
ByLayer
100
AcDbCircle
 10
210.4955789716661627
 20
-603.8859779112584647
 30
0.0
 40
250.0000000000000284
100
AcDbArc
 50
121.4751108017762675
 51
154.5233968177800534
  0
ARC
  5
338
100
AcDbEntity
  8
cut
 62
256
370
-1
  6
ByLayer
100
AcDbCircle
 10
78.6582261826720099
 20
-388.5370461526111967
 30
0.0
 40
2.5
100
AcDbArc
 50
301.4751108017771344
 51
32.7232363938261273
  0
LINE
  5
339
100
AcDbEntity
100
AcDbLine
  8
frame
 62
256
370
-1
  6
ByLayer
 10
68.5467173105846399
 20
-366.0377693438346682
 30
0.0
 11
-40.8857916443843266
 21
-487.5732264486381382
 31
0.0
  0
CIRCLE
  5
33A
100
AcDbEntity
100
AcDbCircle
  8
cut
 62
256
370
-1
  6
ByLayer
 10
199.1629647097358315
 20
-544.8164962086011656
 30
0.0
 40
2.5
  0
CIRCLE
  5
33B
100
AcDbEntity
100
AcDbCircle
  8
cut
 62
256
370
-1
  6
ByLayer
 10
188.6819105008623296
 20
-538.9799167723380151
 30
0.0
 40
2.5
  0
CIRCLE
  5
33C
100
AcDbEntity
100
AcDbCircle
  8
cut
 62
256
370
-1
  6
ByLayer
 10
178.2106949992924001
 20
-533.0919584638030528
 30
0.0
 40
2.5
  0
CIRCLE
  5
33D
100
AcDbEntity
100
AcDbCircle
  8
cut
 62
256
370
-1
  6
ByLayer
 10
167.7141516582588565
 20
-527.2147262836656409
 30
0.0
 40
2.5
  0
CIRCLE
  5
33E
100
AcDbEntity
100
AcDbCircle
  8
cut
 62
256
370
-1
  6
ByLayer
 10
92.2563048846394196
 20
-502.6883239155530418
 30
0.0
 40
2.5
  0
CIRCLE
  5
33F
100
AcDbEntity
100
AcDbCircle
  8
cut
 62
256
370
-1
  6
ByLayer
 10
80.3395111699788629
 20
-501.3069534339696247
 30
0.0
 40
2.5
  0
CIRCLE
  5
340
100
AcDbEntity
100
AcDbCircle
  8
cut
 62
256
370
-1
  6
ByLayer
 10
68.4121453924309577
 20
-499.874349953609908
 30
0.0
 40
2.5
  0
CIRCLE
  5
341
100
AcDbEntity
100
AcDbCircle
  8
cut
 62
256
370
-1
  6
ByLayer
 10
56.4654844540309142
 20
-498.4613486682794701
 30
0.0
 40
2.5
  0
ARC
  5
342
100
AcDbEntity
  8
cut
 62
256
370
-1
  6
ByLayer
100
AcDbCircle
 10
201.5962268513587219
 20
-551.1994031106726197
 30
0.0
 40
2.5
100
AcDbArc
 50
236.1574977230807519
 51
327.242336334971526
  0
LINE
  5
343
100
AcDbEntity
100
AcDbLine
  8
cut
 62
256
370
-1
  6
ByLayer
 10
207.4869152357588007
 20
-546.6643234729169762
 30
0.0
 11
203.6986434682546587
 21
-552.5521205124235848
 31
0.0
  0
ARC
  5
344
100
AcDbEntity
  8
cut
 62
256
370
-1
  6
ByLayer
100
AcDbCircle
 10
205.3844986188628354
 20
-545.3116060711662385
 30
0.0
 40
2.5
100
AcDbArc
 50
327.242336334971526
 51
56.1830262813407444
  0
ARC
  5
345
100
AcDbEntity
  8
cut
 62
256
370
-1
  6
ByLayer
100
AcDbCircle
 10
39.8133226472264781
 20
-792.4804465170631147
 30
0.0
 40
300.0000000000000568
100
AcDbArc
 50
56.1830262813450219
 51
87.8177505374038674
  0
ARC
  5
346
100
AcDbEntity
  8
cut
 62
256
370
-1
  6
ByLayer
100
AcDbCircle
 10
51.1415961558170125
 20
-495.1962050589687578
 30
0.0
 40
2.5
100
AcDbArc
 50
87.8177505374009115
 51
176.7584404837772922
  0
LINE
  5
347
100
AcDbEntity
100
AcDbLine
  8
cut
 62
256
370
-1
  6
ByLayer
 10
48.6455961273708013
 20
-495.0548407848532406
 30
0.0
 11
48.2497068692949824
 21
-502.044864293986052
 31
0.0
  0
ARC
  5
348
100
AcDbEntity
  8
cut
 62
256
370
-1
  6
ByLayer
100
AcDbCircle
 10
39.8133226472264781
 20
-792.4804465170631147
 30
0.0
 40
288.0000000000000568
100
AcDbArc
 50
56.1574977230784143
 51
87.8432790956704679
  0
ARC
  5
349
100
AcDbEntity
  8
cut
 62
256
370
-1
  6
ByLayer
100
AcDbCircle
 10
50.7457068977411936
 20
-502.1862285681015692
 30
0.0
 40
2.5
100
AcDbArc
 50
176.7584404837772922
 51
267.8432790956719032
  0
CIRCLE
  5
34A
100
AcDbEntity
100
AcDbCircle
  8
cut
 62
256
370
-1
  6
ByLayer
 10
187.9969677424319912
 20
-555.1554751837446702
 30
0.0
 40
2.5
  0
CIRCLE
  5
34B
100
AcDbEntity
100
AcDbCircle
  8
cut
 62
256
370
-1
  6
ByLayer
 10
177.5171029076251443
 20
-549.2878993500203251
 30
0.0
 40
2.5
  0
CIRCLE
  5
34C
100
AcDbEntity
100
AcDbCircle
  8
cut
 62
256
370
-1
  6
ByLayer
 10
167.062393095843845
 20
-543.4073316857934515
 30
0.0
 40
2.5
  0
CIRCLE
  5
34D
100
AcDbEntity
100
AcDbCircle
  8
cut
 62
256
370
-1
  6
ByLayer
 10
156.5566493600751414
 20
-537.5675425303041948
 30
0.0
 40
2.5
  0
CIRCLE
  5
34E
100
AcDbEntity
100
AcDbCircle
  8
cut
 62
256
370
-1
  6
ByLayer
 10
95.1962584114719874
 20
-517.6139336004463303
 30
0.0
 40
2.5
  0
CIRCLE
  5
34F
100
AcDbEntity
100
AcDbCircle
  8
cut
 62
256
370
-1
  6
ByLayer
 10
83.2687017273971861
 20
-516.2034710279165211
 30
0.0
 40
2.5
  0
CIRCLE
  5
350
100
AcDbEntity
100
AcDbCircle
  8
cut
 62
256
370
-1
  6
ByLayer
 10
71.3594134959459154
 20
-514.7713791585432546
 30
0.0
 40
2.5
  0
CIRCLE
  5
351
100
AcDbEntity
100
AcDbCircle
  8
cut
 62
256
370
-1
  6
ByLayer
 10
59.4185813263494538
 20
-513.3964915559572546
 30
0.0
 40
2.5
  0
ARC
  5
352
100
AcDbEntity
  8
cut
 62
256
370
-1
  6
ByLayer
100
AcDbCircle
 10
190.3321133006824084
 20
-561.6215960134693432
 30
0.0
 40
2.5
100
AcDbArc
 50
235.4766031822246646
 51
326.7247287742696358
  0
LINE
  5
353
100
AcDbEntity
100
AcDbLine
  8
cut
 62
256
370
-1
  6
ByLayer
 10
196.2637449883021645
 20
-557.139590040548569
 30
0.0
 11
192.4222239030740411
 21
-562.9932510975812647
 31
0.0
  0
ARC
  5
354
100
AcDbEntity
  8
cut
 62
256
370
-1
  6
ByLayer
100
AcDbCircle
 10
194.1736343859104181
 20
-555.7679349564366476
 30
0.0
 40
2.5
100
AcDbArc
 50
326.7247287742696358
 51
55.5102764229106995
  0
ARC
  5
355
100
AcDbEntity
  8
cut
 62
256
370
-1
  6
ByLayer
100
AcDbCircle
 10
47.2295757784519736
 20
-769.655039850508615
 30
0.0
 40
262.0
100
AcDbArc
 50
55.5102764229127388
 51
88.491215957530855
  0
ARC
  5
356
100
AcDbEntity
  8
cut
 62
256
370
-1
  6
ByLayer
100
AcDbCircle
 10
54.0622642164290781
 20
-510.2450084933739163
 30
0.0
 40
2.5
100
AcDbArc
 50
88.4912159575261796
 51
177.2767636061739154
  0
LINE
  5
357
100
AcDbEntity
100
AcDbLine
  8
cut
 62
256
370
-1
  6
ByLayer
 10
51.5650874946233557
 20
-510.1262296228983359
 30
0.0
 11
51.2324298602825436
 21
-517.1199390047059978
 31
0.0
  0
ARC
  5
358
100
AcDbEntity
  8
cut
 62
256
370
-1
  6
ByLayer
100
AcDbCircle
 10
47.2295757784519736
 20
-769.655039850508615
 30
0.0
 40
250.0000000000000284
100
AcDbArc
 50
55.4766031822199679
 51
88.5248891982237325
  0
ARC
  5
359
100
AcDbEntity
  8
cut
 62
256
370
-1
  6
ByLayer
100
AcDbCircle
 10
53.7296065820883797
 20
-517.2387178751818055
 30
0.0
 40
2.5
100
AcDbArc
 50
177.2767636061739154
 51
268.5248891982228088
  0
LINE
  5
35A
100
AcDbEntity
100
AcDbLine
  8
frame
 62
256
370
-1
  6
ByLayer
 10
51.2367917315196948
 20
-492.698018155959403
 30
0.0
 11
206.7758530387926896
 21
-543.2345569917889634
 31
0.0
  0
CIRCLE
  5
35B
100
AcDbEntity
100
AcDbCircle
  8
cut
 62
256
370
-1
  6
ByLayer
 10
154.0677054413451117
 20
-567.5792195904298296
 30
0.0
 40
2.5
  0
CIRCLE
  5
35C
100
AcDbEntity
100
AcDbCircle
  8
cut
 62
256
370
-1
  6
ByLayer
 10
142.0725565198872289
 20
-567.393318549002629
 30
0.0
 40
2.5
  0
CIRCLE
  5
35D
100
AcDbEntity
100
AcDbCircle
  8
cut
 62
256
370
-1
  6
ByLayer
 10
130.060238732758819
 20
-567.2568322698325574
 30
0.0
 40
2.5
  0
CIRCLE
  5
35E
100
AcDbEntity
100
AcDbCircle
  8
cut
 62
256
370
-1
  6
ByLayer
 10
118.0313494574306077
 20
-567.0983929712542704
 30
0.0
 40
2.5
  0
CIRCLE
  5
35F
100
AcDbEntity
100
AcDbCircle
  8
cut
 62
256
370
-1
  6
ByLayer
 10
40.4197360525463196
 20
-550.609957098668815
 30
0.0
 40
2.5
  0
CIRCLE
  5
360
100
AcDbEntity
100
AcDbCircle
  8
cut
 62
256
370
-1
  6
ByLayer
 10
29.4088047231998644
 20
-545.8478621704276748
 30
0.0
 40
2.5
  0
CIRCLE
  5
361
100
AcDbEntity
100
AcDbCircle
  8
cut
 62
256
370
-1
  6
ByLayer
 10
18.3631012194342844
 20
-541.1248502891951375
 30
0.0
 40
2.5
  0
CIRCLE
  5
362
100
AcDbEntity
100
AcDbCircle
  8
cut
 62
256
370
-1
  6
ByLayer
 10
7.3104887137154861
 20
-536.3752148286714601
 30
0.0
 40
2.5
  0
ARC
  5
363
100
AcDbEntity
  8
cut
 62
256
370
-1
  6
ByLayer
100
AcDbCircle
 10
159.366425721093151
 20
-563.2680911340562488
 30
0.0
 40
2.5
100
AcDbArc
 50
2.7576636650285162
 51
93.842502276919177
  0
LINE
  5
364
100
AcDbEntity
100
AcDbLine
  8
cut
 62
256
370
-1
  6
ByLayer
 10
162.2003716888837346
 20
-570.1409295007381388
 30
0.0
 11
161.8635306215390415
 21
-563.1478118084465905
 31
0.0
  0
ARC
  5
365
100
AcDbEntity
  8
cut
 62
256
370
-1
  6
ByLayer
100
AcDbCircle
 10
159.7032667884379009
 20
-570.2612088263477972
 30
0.0
 40
2.5
100
AcDbArc
 50
273.8169737186591988
 51
2.7576636650285162
  0
ARC
  5
366
100
AcDbEntity
  8
cut
 62
256
370
-1
  6
ByLayer
100
AcDbCircle
 10
139.8988424854856873
 20
-273.421125990440089
 30
0.0
 40
300.0000000000000568
100
AcDbArc
 50
242.1822494625961042
 51
273.8169737186549355
  0
ARC
  5
367
100
AcDbEntity
  8
cut
 62
256
370
-1
  6
ByLayer
100
AcDbCircle
 10
1.0672943958960559
 20
-536.5409679922316855
 30
0.0
 40
2.5
100
AcDbArc
 50
153.2415595162226793
 51
242.1822494625990601
  0
LINE
  5
368
100
AcDbEntity
100
AcDbLine
  8
cut
 62
256
370
-1
  6
ByLayer
 10
-1.1649871736427428
 20
-535.4153930305803897
 30
0.0
 11
1.9871744263445095
 21
-529.1639104695827882
 31
0.0
  0
ARC
  5
369
100
AcDbEntity
  8
cut
 62
256
370
-1
  6
ByLayer
100
AcDbCircle
 10
139.8988424854856873
 20
-273.421125990440089
 30
0.0
 40
288.0000000000000568
100
AcDbArc
 50
242.1567209043294611
 51
273.8425022769214934
  0
ARC
  5
36A
100
AcDbEntity
  8
cut
 62
256
370
-1
  6
ByLayer
100
AcDbCircle
 10
4.2194559958834219
 20
-530.2894854312344251
 30
0.0
 40
2.5
100
AcDbArc
 50
62.1567209043281395
 51
153.2415595162226793
  0
CIRCLE
  5
36B
100
AcDbEntity
100
AcDbCircle
  8
cut
 62
256
370
-1
  6
ByLayer
 10
149.5671578966517643
 20
-553.0424026651102167
 30
0.0
 40
2.5
  0
CIRCLE
  5
36C
100
AcDbEntity
100
AcDbCircle
  8
cut
 62
256
370
-1
  6
ByLayer
 10
137.5575408046195491
 20
-552.8839399783438466
 30
0.0
 40
2.5
  0
CIRCLE
  5
36D
100
AcDbEntity
100
AcDbCircle
  8
cut
 62
256
370
-1
  6
ByLayer
 10
125.5632126863091003
 20
-552.7493060583469742
 30
0.0
 40
2.5
  0
CIRCLE
  5
36E
100
AcDbEntity
100
AcDbCircle
  8
cut
 62
256
370
-1
  6
ByLayer
 10
113.5450771477395904
 20
-552.5538399518611641
 30
0.0
 40
2.5
  0
CIRCLE
  5
36F
100
AcDbEntity
100
AcDbCircle
  8
cut
 62
256
370
-1
  6
ByLayer
 10
50.4286153351755928
 20
-539.1539767079964349
 30
0.0
 40
2.5
  0
CIRCLE
  5
370
100
AcDbEntity
100
AcDbCircle
  8
cut
 62
256
370
-1
  6
ByLayer
 10
39.3938169554229773
 20
-534.411694784856877
 30
0.0
 40
2.5
  0
CIRCLE
  5
371
100
AcDbEntity
100
AcDbCircle
  8
cut
 62
256
370
-1
  6
ByLayer
 10
28.3640248713085583
 20
-529.6972786085617599
 30
0.0
 40
2.5
  0
CIRCLE
  5
372
100
AcDbEntity
100
AcDbCircle
  8
cut
 62
256
370
-1
  6
ByLayer
 10
17.3355170688185893
 20
-524.9175501149512684
 30
0.0
 40
2.5
  0
ARC
  5
373
100
AcDbEntity
  8
cut
 62
256
370
-1
  6
ByLayer
100
AcDbCircle
 10
154.8225136864932665
 20
-548.6101505417540238
 30
0.0
 40
2.5
100
AcDbArc
 50
3.2752712257303807
 51
94.5233968177753781
  0
LINE
  5
374
100
AcDbEntity
100
AcDbLine
  8
cut
 62
256
370
-1
  6
ByLayer
 10
157.7184544274043674
 20
-555.4574974180270601
 30
0.0
 11
157.318430106939644
 21
-548.4673176948789433
 31
0.0
  0
ARC
  5
375
100
AcDbEntity
  8
cut
 62
256
370
-1
  6
ByLayer
100
AcDbCircle
 10
155.2225380069579899
 20
-555.6003302649021407
 30
0.0
 40
2.5
100
AcDbArc
 50
274.4897235770892507
 51
3.2752712257303807
  0
ARC
  5
376
100
AcDbEntity
  8
cut
 62
256
370
-1
  6
ByLayer
100
AcDbCircle
 10
134.9088027647459
 20
-296.8966345809994891
 30
0.0
 40
262.0
100
AcDbArc
 50
241.5087840424691876
 51
274.4897235770872044
  0
ARC
  5
377
100
AcDbEntity
  8
cut
 62
256
370
-1
  6
ByLayer
100
AcDbCircle
 10
11.1210688496106371
 20
-524.9686559517846263
 30
0.0
 40
2.5
100
AcDbArc
 50
152.723236393826113
 51
241.5087840424737635
  0
LINE
  5
378
100
AcDbEntity
100
AcDbLine
  8
cut
 62
256
370
-1
  6
ByLayer
 10
8.899060935549798
 20
-523.8229331101463231
 30
0.0
 11
12.1078256643517932
 21
-517.5998743016450589
 31
0.0
  0
ARC
  5
379
100
AcDbEntity
  8
cut
 62
256
370
-1
  6
ByLayer
100
AcDbCircle
 10
134.9088027647459
 20
-296.8966345809994891
 30
0.0
 40
250.0000000000000284
100
AcDbArc
 50
241.4751108017762533
 51
274.5233968177800534
  0
ARC
  5
37A
100
AcDbEntity
  8
cut
 62
256
370
-1
  6
ByLayer
100
AcDbCircle
 10
14.3298335784128312
 20
-518.7455971432832484
 30
0.0
 40
2.5
100
AcDbArc
 50
61.4751108017771202
 51
152.723236393826113
  0
LINE
  5
37B
100
AcDbEntity
100
AcDbLine
  8
frame
 62
256
370
-1
  6
ByLayer
 10
-0.099357268722045
 20
-538.7520591014909996
 30
0.0
 11
159.869690522076155
 21
-572.7556633039604321
 31
0.0
  0
CIRCLE
  5
37C
100
AcDbEntity
100
AcDbCircle
  8
cut
 62
256
370
-1
  6
ByLayer
 10
420.9730828186029044
 20
-13.9913729285916837
 30
0.0
 40
2.5
  0
CIRCLE
  5
37D
100
AcDbEntity
100
AcDbCircle
  8
cut
 62
256
370
-1
  6
ByLayer
 10
409.5075716918466924
 20
-10.4614704586380522
 30
0.0
 40
2.5
  0
CIRCLE
  5
37E
100
AcDbEntity
100
AcDbCircle
  8
cut
 62
256
370
-1
  6
ByLayer
 10
398.0410020048274191
 20
-6.8792662857724487
 30
0.0
 40
2.5
  0
CIRCLE
  5
37F
100
AcDbEntity
100
AcDbCircle
  8
cut
 62
256
370
-1
  6
ByLayer
 10
386.5518880398960846
 20
-3.3128198035917542
 30
0.0
 40
2.5
  0
CIRCLE
  5
380
100
AcDbEntity
100
AcDbCircle
  8
cut
 62
256
370
-1
  6
ByLayer
 10
307.6436504757101602
 20
4.989053319238927
 30
0.0
 40
2.5
  0
CIRCLE
  5
381
100
AcDbEntity
100
AcDbCircle
  8
cut
 62
256
370
-1
  6
ByLayer
 10
295.700064222803519
 20
3.8625968111827405
 30
0.0
 40
2.5
  0
CIRCLE
  5
382
100
AcDbEntity
100
AcDbCircle
  8
cut
 62
256
370
-1
  6
ByLayer
 10
283.7354849925475264
 20
2.7840556824876472
 30
0.0
 40
2.5
  0
CIRCLE
  5
383
100
AcDbEntity
100
AcDbCircle
  8
cut
 62
256
370
-1
  6
ByLayer
 10
271.7561077725105747
 20
1.682329024238161
 30
0.0
 40
2.5
  0
ARC
  5
384
100
AcDbEntity
  8
cut
 62
256
370
-1
  6
ByLayer
100
AcDbCircle
 10
424.6802533107297677
 20
-19.7288943544924109
 30
0.0
 40
2.5
100
AcDbArc
 50
248.1574977230807804
 51
339.242336334971526
  0
LINE
  5
385
100
AcDbEntity
100
AcDbLine
  8
cut
 62
256
370
-1
  6
ByLayer
 10
429.4993199451221813
 20
-14.068174105603843
 30
0.0
 11
427.0179728424859604
 21
-20.6149346418638189
 31
0.0
  0
ARC
  5
386
100
AcDbEntity
  8
cut
 62
256
370
-1
  6
ByLayer
100
AcDbCircle
 10
427.1616004133658748
 20
-13.1821338182326944
 30
0.0
 40
2.5
100
AcDbArc
 50
339.242336334971526
 51
68.1830262813407444
  0
ARC
  5
387
100
AcDbEntity
  8
cut
 62
256
370
-1
  6
ByLayer
100
AcDbCircle
 10
316.5978434206065231
 20
-289.3739252234912556
 30
0.0
 40
300.0000000000000568
100
AcDbArc
 50
68.1830262813450219
 51
99.8177505374038674
  0
ARC
  5
388
100
AcDbEntity
  8
cut
 62
256
370
-1
  6
ByLayer
100
AcDbCircle
 10
265.8696976784632398
 20
3.7692227939301972
 30
0.0
 40
2.5
100
AcDbArc
 50
99.8177505374009115
 51
188.7584404837772922
  0
LINE
  5
389
100
AcDbEntity
100
AcDbLine
  8
cut
 62
256
370
-1
  6
ByLayer
 10
263.3988499539544819
 20
3.3885503332903717
 30
0.0
 11
264.4649194326509587
 21
-3.531034396263987
 31
0.0
  0
ARC
  5
38A
100
AcDbEntity
  8
cut
 62
256
370
-1
  6
ByLayer
100
AcDbCircle
 10
316.5978434206065231
 20
-289.3739252234912556
 30
0.0
 40
288.0000000000000568
100
AcDbArc
 50
68.1574977230784214
 51
99.8432790956704679
  0
ARC
  5
38B
100
AcDbEntity
  8
cut
 62
256
370
-1
  6
ByLayer
100
AcDbCircle
 10
266.9357671571597734
 20
-3.1503619356240975
 30
0.0
 40
2.5
100
AcDbArc
 50
188.7584404837772922
 51
279.8432790956719032
  0
CIRCLE
  5
38C
100
AcDbEntity
100
AcDbCircle
  8
cut
 62
256
370
-1
  6
ByLayer
 10
412.2006842752850275
 20
-26.4259617163036289
 30
0.0
 40
2.5
  0
CIRCLE
  5
38D
100
AcDbEntity
100
AcDbCircle
  8
cut
 62
256
370
-1
  6
ByLayer
 10
400.7298920185130555
 20
-22.8654929097688076
 30
0.0
 40
2.5
  0
CIRCLE
  5
38E
100
AcDbEntity
100
AcDbCircle
  8
cut
 62
256
370
-1
  6
ByLayer
 10
389.2810039337133503
 20
-19.2870861520289267
 30
0.0
 40
2.5
  0
CIRCLE
  5
38F
100
AcDbEntity
100
AcDbCircle
  8
cut
 62
256
370
-1
  6
ByLayer
 10
377.7906754673100522
 20
-15.759177344197596
 30
0.0
 40
2.5
  0
CIRCLE
  5
390
100
AcDbEntity
100
AcDbCircle
  8
cut
 62
256
370
-1
  6
ByLayer
 10
313.6225677103224143
 20
-8.9991452748393019
 30
0.0
 40
2.5
  0
CIRCLE
  5
391
100
AcDbEntity
100
AcDbCircle
  8
cut
 62
256
370
-1
  6
ByLayer
 10
301.662405098888371
 20
-10.0993831711050852
 30
0.0
 40
2.5
  0
CIRCLE
  5
392
100
AcDbEntity
100
AcDbCircle
  8
cut
 62
256
370
-1
  6
ByLayer
 10
289.7156147468791687
 20
-11.1746661976843136
 30
0.0
 40
2.5
  0
CIRCLE
  5
393
100
AcDbEntity
100
AcDbCircle
  8
cut
 62
256
370
-1
  6
ByLayer
 10
277.7498632032853152
 20
-12.3124617940880388
 30
0.0
 40
2.5
  0
ARC
  5
394
100
AcDbEntity
  8
cut
 62
256
370
-1
  6
ByLayer
100
AcDbCircle
 10
415.8291834151918351
 20
-32.265278230632326
 30
0.0
 40
2.5
100
AcDbArc
 50
247.4766031822246646
 51
338.7247287742696926
  0
LINE
  5
395
100
AcDbEntity
100
AcDbLine
  8
cut
 62
256
370
-1
  6
ByLayer
 10
420.6993332787884583
 20
-26.6479592682640352
 30
0.0
 11
418.158803213945987
 21
-33.1724009308513104
 31
0.0
  0
ARC
  5
396
100
AcDbEntity
  8
cut
 62
256
370
-1
  6
ByLayer
100
AcDbCircle
 10
418.3697134800341928
 20
-25.7408365680450402
 30
0.0
 40
2.5
100
AcDbArc
 50
338.7247287742696926
 51
67.5102764229107066
  0
ARC
  5
397
100
AcDbEntity
  8
cut
 62
256
370
-1
  6
ByLayer
100
AcDbCircle
 10
319.1063647337030602
 20
-265.5053827287819672
 30
0.0
 40
262.0
100
AcDbArc
 50
67.5102764229127388
 51
100.4912159575308692
  0
ARC
  5
398
100
AcDbEntity
  8
cut
 62
256
370
-1
  6
ByLayer
100
AcDbCircle
 10
271.8553643013220835
 20
-10.3434871445485541
 30
0.0
 40
2.5
100
AcDbArc
 50
100.4912159575261796
 51
189.2767636061739154
  0
LINE
  5
399
100
AcDbEntity
100
AcDbLine
  8
cut
 62
256
370
-1
  6
ByLayer
 10
269.3880613664854877
 20
-10.746496111876418
 30
0.0
 11
270.5167470422488805
 21
-17.6565395751403109
 31
0.0
  0
ARC
  5
39A
100
AcDbEntity
  8
cut
 62
256
370
-1
  6
ByLayer
100
AcDbCircle
 10
319.1063647337030602
 20
-265.5053827287819672
 30
0.0
 40
250.0000000000000284
100
AcDbArc
 50
67.476603182219975
 51
100.5248891982237325
  0
ARC
  5
39B
100
AcDbEntity
  8
cut
 62
256
370
-1
  6
ByLayer
100
AcDbCircle
 10
272.9840499770856468
 20
-17.2535306078126816
 30
0.0
 40
2.5
100
AcDbArc
 50
189.2767636061739154
 51
280.5248891982228088
  0
LINE
  5
39C
100
AcDbEntity
100
AcDbLine
  8
frame
 62
256
370
-1
  6
ByLayer
 10
265.4434107394537818
 20
6.2326105923961137
 30
0.0
 11
428.0907076149858881
 21
-10.8611943946590515
 31
0.0
  0
CIRCLE
  5
39D
100
AcDbEntity
100
AcDbCircle
  8
cut
 62
256
370
-1
  6
ByLayer
 10
381.5958994666905255
 20
-45.6325077930509906
 30
0.0
 40
2.5
  0
CIRCLE
  5
39E
100
AcDbEntity
100
AcDbCircle
  8
cut
 62
256
370
-1
  6
ByLayer
 10
369.8242223288738728
 20
-47.9446008292762187
 30
0.0
 40
2.5
  0
CIRCLE
  5
39F
100
AcDbEntity
100
AcDbCircle
  8
cut
 62
256
370
-1
  6
ByLayer
 10
358.0460254130665589
 20
-50.308598404535033
 30
0.0
 40
2.5
  0
CIRCLE
  5
3A0
100
AcDbEntity
100
AcDbCircle
  8
cut
 62
256
370
-1
  6
ByLayer
 10
346.2470548464522153
 20
-52.6545680926618473
 30
0.0
 40
2.5
  0
CIRCLE
  5
3A1
100
AcDbEntity
100
AcDbCircle
  8
cut
 62
256
370
-1
  6
ByLayer
 10
266.9033028241755687
 20
-52.6628058741429186
 30
0.0
 40
2.5
  0
CIRCLE
  5
3A2
100
AcDbEntity
100
AcDbCircle
  8
cut
 62
256
370
-1
  6
ByLayer
 10
255.1428915541653737
 20
-50.2940754957798788
 30
0.0
 40
2.5
  0
CIRCLE
  5
3A3
100
AcDbEntity
100
AcDbCircle
  8
cut
 62
256
370
-1
  6
ByLayer
 10
243.3565937875606551
 20
-47.9708036476545487
 30
0.0
 40
2.5
  0
CIRCLE
  5
3A4
100
AcDbEntity
100
AcDbCircle
  8
cut
 62
256
370
-1
  6
ByLayer
 10
231.5580026438858852
 20
-45.6229264716006071
 30
0.0
 40
2.5
  0
ARC
  5
3A5
100
AcDbEntity
  8
cut
 62
256
370
-1
  6
ByLayer
100
AcDbCircle
 10
385.8824959885884027
 20
-40.3139219444612067
 30
0.0
 40
2.5
100
AcDbArc
 50
14.7576636650285078
 51
105.842502276919177
  0
LINE
  5
3A6
100
AcDbEntity
100
AcDbLine
  8
cut
 62
256
370
-1
  6
ByLayer
 10
390.0834568831260185
 20
-46.4473618052128074
 30
0.0
 11
388.3000256777822869
 21
-39.6770937086971998
 31
0.0
  0
ARC
  5
3A7
100
AcDbEntity
  8
cut
 62
256
370
-1
  6
ByLayer
100
AcDbCircle
 10
387.665927193932248
 20
-47.0841900409767931
 30
0.0
 40
2.5
100
AcDbArc
 50
285.8169737186591988
 51
14.7576636650285078
  0
ARC
  5
3A8
100
AcDbEntity
  8
cut
 62
256
370
-1
  6
ByLayer
100
AcDbCircle
 10
306.577753553187847
 20
239.1516534440913233
 30
0.0
 40
300.0000000000000568
100
AcDbArc
 50
254.1822494625961326
 51
285.8169737186549355
  0
ARC
  5
3A9
100
AcDbEntity
  8
cut
 62
256
370
-1
  6
ByLayer
100
AcDbCircle
 10
225.4856991214900575
 20
-47.0830906175727506
 30
0.0
 40
2.5
100
AcDbArc
 50
165.2415595162226793
 51
254.1822494625990885
  0
LINE
  5
3AA
100
AcDbEntity
100
AcDbLine
  8
cut
 62
256
370
-1
  6
ByLayer
 10
223.0681780666643306
 20
-46.4462296048916272
 30
0.0
 11
224.8517010634423627
 21
-39.6759856888384874
 31
0.0
  0
ARC
  5
3AB
100
AcDbEntity
  8
cut
 62
256
370
-1
  6
ByLayer
100
AcDbCircle
 10
306.577753553187847
 20
239.1516534440913233
 30
0.0
 40
288.0000000000000568
100
AcDbArc
 50
254.1567209043294895
 51
285.8425022769215502
  0
ARC
  5
3AC
100
AcDbEntity
  8
cut
 62
256
370
-1
  6
ByLayer
100
AcDbCircle
 10
227.2692221182682601
 20
-40.3128467015198311
 30
0.0
 40
2.5
100
AcDbArc
 50
74.1567209043281395
 51
165.2415595162226793
  0
CIRCLE
  5
3AD
100
AcDbEntity
100
AcDbCircle
  8
cut
 62
256
370
-1
  6
ByLayer
 10
374.1713254978088798
 20
-32.3490716448659583
 30
0.0
 40
2.5
  0
CIRCLE
  5
3AE
100
AcDbEntity
100
AcDbCircle
  8
cut
 62
256
370
-1
  6
ByLayer
 10
362.3912011083687617
 20
-34.6910115436778952
 30
0.0
 40
2.5
  0
CIRCLE
  5
3AF
100
AcDbEntity
100
AcDbCircle
  8
cut
 62
256
370
-1
  6
ByLayer
 10
350.6309858710814069
 20
-37.0530807371564848
 30
0.0
 40
2.5
  0
CIRCLE
  5
3B0
100
AcDbEntity
100
AcDbCircle
  8
cut
 62
256
370
-1
  6
ByLayer
 10
338.8348357400388977
 20
-39.3605969143736019
 30
0.0
 40
2.5
  0
CIRCLE
  5
3B1
100
AcDbEntity
100
AcDbCircle
  8
cut
 62
256
370
-1
  6
ByLayer
 10
274.3116318275139065
 20
-39.3762031261109016
 30
0.0
 40
2.5
  0
CIRCLE
  5
3B2
100
AcDbEntity
100
AcDbCircle
  8
cut
 62
256
370
-1
  6
ByLayer
 10
262.5319944148031368
 20
-37.0318150299560926
 30
0.0
 40
2.5
  0
CIRCLE
  5
3B3
100
AcDbEntity
100
AcDbCircle
  8
cut
 62
256
370
-1
  6
ByLayer
 10
250.763047512701803
 20
-34.7136428798290027
 30
0.0
 40
2.5
  0
CIRCLE
  5
3B4
100
AcDbEntity
100
AcDbCircle
  8
cut
 62
256
370
-1
  6
ByLayer
 10
238.9817776332657786
 20
-32.3313186260574454
 30
0.0
 40
2.5
  0
ARC
  5
3B5
100
AcDbEntity
  8
cut
 62
256
370
-1
  6
ByLayer
100
AcDbCircle
 10
378.3903221215472286
 20
-26.921024956442956
 30
0.0
 40
2.5
100
AcDbArc
 50
15.2752712257303713
 51
106.5233968177753923
  0
LINE
  5
3B6
100
AcDbEntity
100
AcDbLine
  8
cut
 62
256
370
-1
  6
ByLayer
 10
382.6466230757983453
 20
-33.016640938910669
 30
0.0
 11
380.8020001611408816
 21
-26.262383146851306
 31
0.0
  0
ARC
  5
3B7
100
AcDbEntity
  8
cut
 62
256
370
-1
  6
ByLayer
100
AcDbCircle
 10
380.2349450362047492
 20
-33.6752827485023332
 30
0.0
 40
2.5
100
AcDbArc
 50
286.4897235770892507
 51
15.2752712257303713
  0
ARC
  5
3B8
100
AcDbEntity
  8
cut
 62
256
370
-1
  6
ByLayer
100
AcDbCircle
 10
306.5775908566499197
 20
215.1516534446430171
 30
0.0
 40
262.0
100
AcDbArc
 50
253.5087840424691876
 51
286.4897235770872044
  0
ARC
  5
3B9
100
AcDbEntity
  8
cut
 62
256
370
-1
  6
ByLayer
100
AcDbCircle
 10
232.9137555187097348
 20
-33.6733641144943618
 30
0.0
 40
2.5
100
AcDbArc
 50
164.723236393826113
 51
253.5087840424737635
  0
LINE
  5
3BA
100
AcDbEntity
100
AcDbLine
  8
cut
 62
256
370
-1
  6
ByLayer
 10
230.502094635546058
 20
-33.0146594882627582
 30
0.0
 11
232.3468934774091395
 21
-26.2604497453002956
 31
0.0
  0
ARC
  5
3BB
100
AcDbEntity
  8
cut
 62
256
370
-1
  6
ByLayer
100
AcDbCircle
 10
306.5775908566499197
 20
215.1516534446430171
 30
0.0
 40
250.0000000000000284
100
AcDbArc
 50
253.4751108017762817
 51
286.5233968177800534
  0
ARC
  5
3BC
100
AcDbEntity
  8
cut
 62
256
370
-1
  6
ByLayer
100
AcDbCircle
 10
234.7585543605729868
 20
-26.9191543715316328
 30
0.0
 40
2.5
100
AcDbArc
 50
73.4751108017771202
 51
164.723236393826113
  0
LINE
  5
3BD
100
AcDbEntity
100
AcDbLine
  8
frame
 62
256
370
-1
  6
ByLayer
 10
224.804253285929974
 20
-49.4884246012846774
 30
0.0
 11
388.3473404178040482
 21
-49.4895332635403733
 31
0.0
  0
CIRCLE
  5
3BE
100
AcDbEntity
100
AcDbCircle
  8
cut
 62
256
370
-1
  6
ByLayer
 10
540.6691849903329512
 20
-94.5197194254656949
 30
0.0
 40
2.5
  0
CIRCLE
  5
3BF
100
AcDbEntity
100
AcDbCircle
  8
cut
 62
256
370
-1
  6
ByLayer
 10
537.1392825203793109
 20
-105.9852305522219638
 30
0.0
 40
2.5
  0
CIRCLE
  5
3C0
100
AcDbEntity
100
AcDbCircle
  8
cut
 62
256
370
-1
  6
ByLayer
 10
533.5570783475137659
 20
-117.451800239241237
 30
0.0
 40
2.5
  0
CIRCLE
  5
3C1
100
AcDbEntity
100
AcDbCircle
  8
cut
 62
256
370
-1
  6
ByLayer
 10
529.9906318653330572
 20
-128.9409142041725431
 30
0.0
 40
2.5
  0
CIRCLE
  5
3C2
100
AcDbEntity
100
AcDbCircle
  8
cut
 62
256
370
-1
  6
ByLayer
 10
521.688758742502273
 20
-207.8491517683584959
 30
0.0
 40
2.5
  0
CIRCLE
  5
3C3
100
AcDbEntity
100
AcDbCircle
  8
cut
 62
256
370
-1
  6
ByLayer
 10
522.8152152505584809
 20
-219.7927380212650803
 30
0.0
 40
2.5
  0
CIRCLE
  5
3C4
100
AcDbEntity
100
AcDbCircle
  8
cut
 62
256
370
-1
  6
ByLayer
 10
523.8937563792536594
 20
-231.7573172515211297
 30
0.0
 40
2.5
  0
CIRCLE
  5
3C5
100
AcDbEntity
100
AcDbCircle
  8
cut
 62
256
370
-1
  6
ByLayer
 10
524.9954830375031634
 20
-243.7366944715581099
 30
0.0
 40
2.5
  0
ARC
  5
3C6
100
AcDbEntity
  8
cut
 62
256
370
-1
  6
ByLayer
100
AcDbCircle
 10
546.4067064162336465
 20
-90.8125489333388884
 30
0.0
 40
2.5
100
AcDbArc
 50
338.1574977230807804
 51
69.2423363349715402
  0
LINE
  5
3C7
100
AcDbEntity
100
AcDbLine
  8
cut
 62
256
370
-1
  6
ByLayer
 10
540.7459861673451087
 20
-85.9934822989465317
 30
0.0
 11
547.2927467036050757
 21
-88.4748294015826815
 31
0.0
  0
ARC
  5
3C8
100
AcDbEntity
  8
cut
 62
256
370
-1
  6
ByLayer
100
AcDbCircle
 10
539.8599458799739068
 20
-88.3312018307027387
 30
0.0
 40
2.5
100
AcDbArc
 50
69.2423363349715402
 51
158.1830262813407728
  0
ARC
  5
3C9
100
AcDbEntity
  8
cut
 62
256
370
-1
  6
ByLayer
100
AcDbCircle
 10
816.0517372852325479
 20
-198.8949588234623036
 30
0.0
 40
300.0000000000000568
100
AcDbArc
 50
158.1830262813450361
 51
189.8177505374038674
  0
ARC
  5
3CA
100
AcDbEntity
  8
cut
 62
256
370
-1
  6
ByLayer
100
AcDbCircle
 10
522.9085892678110667
 20
-249.6231045656054164
 30
0.0
 40
2.5
100
AcDbArc
 50
189.8177505374009399
 51
278.7584404837772922
  0
LINE
  5
3CB
100
AcDbEntity
100
AcDbLine
  8
cut
 62
256
370
-1
  6
ByLayer
 10
523.2892617284509242
 20
-252.0939522901142027
 30
0.0
 11
530.2088464580052687
 21
-251.0278828114176974
 31
0.0
  0
ARC
  5
3CC
100
AcDbEntity
  8
cut
 62
256
370
-1
  6
ByLayer
100
AcDbCircle
 10
816.0517372852325479
 20
-198.8949588234623036
 30
0.0
 40
288.0000000000000568
100
AcDbArc
 50
158.1574977230784214
 51
189.8432790956704821
  0
ARC
  5
3CD
100
AcDbEntity
  8
cut
 62
256
370
-1
  6
ByLayer
100
AcDbCircle
 10
529.8281739973652975
 20
-248.5570350869088543
 30
0.0
 40
2.5
100
AcDbArc
 50
278.7584404837772922
 51
9.8432790956719121
  0
CIRCLE
  5
3CE
100
AcDbEntity
100
AcDbCircle
  8
cut
 62
256
370
-1
  6
ByLayer
 10
553.1037737780449106
 20
-103.2921179687835718
 30
0.0
 40
2.5
  0
CIRCLE
  5
3CF
100
AcDbEntity
100
AcDbCircle
  8
cut
 62
256
370
-1
  6
ByLayer
 10
549.5433049715101106
 20
-114.7629102255556006
 30
0.0
 40
2.5
  0
CIRCLE
  5
3D0
100
AcDbEntity
100
AcDbCircle
  8
cut
 62
256
370
-1
  6
ByLayer
 10
545.9648982137701978
 20
-126.2117983103553058
 30
0.0
 40
2.5
  0
CIRCLE
  5
3D1
100
AcDbEntity
100
AcDbCircle
  8
cut
 62
256
370
-1
  6
ByLayer
 10
542.4369894059389026
 20
-137.7021267767586039
 30
0.0
 40
2.5
  0
CIRCLE
  5
3D2
100
AcDbEntity
100
AcDbCircle
  8
cut
 62
256
370
-1
  6
ByLayer
 10
535.6769573365805854
 20
-201.8702345337462418
 30
0.0
 40
2.5
  0
CIRCLE
  5
3D3
100
AcDbEntity
100
AcDbCircle
  8
cut
 62
256
370
-1
  6
ByLayer
 10
536.7771952328463385
 20
-213.8303971451802852
 30
0.0
 40
2.5
  0
CIRCLE
  5
3D4
100
AcDbEntity
100
AcDbCircle
  8
cut
 62
256
370
-1
  6
ByLayer
 10
537.8524782594255385
 20
-225.7771874971894874
 30
0.0
 40
2.5
  0
CIRCLE
  5
3D5
100
AcDbEntity
100
AcDbCircle
  8
cut
 62
256
370
-1
  6
ByLayer
 10
538.9902738558292867
 20
-237.7429390407833978
 30
0.0
 40
2.5
  0
ARC
  5
3D6
100
AcDbEntity
  8
cut
 62
256
370
-1
  6
ByLayer
100
AcDbCircle
 10
558.9430902923736539
 20
-99.6636188288767642
 30
0.0
 40
2.5
100
AcDbArc
 50
337.4766031822246646
 51
68.7247287742696642
  0
LINE
  5
3D7
100
AcDbEntity
100
AcDbLine
  8
cut
 62
256
370
-1
  6
ByLayer
 10
553.3257713300052956
 20
-94.7934689652801978
 30
0.0
 11
559.8502129925925601
 21
-97.333999030122726
 31
0.0
  0
ARC
  5
3D8
100
AcDbEntity
  8
cut
 62
256
370
-1
  6
ByLayer
100
AcDbCircle
 10
552.4186486297862757
 20
-97.1230887640344633
 30
0.0
 40
2.5
100
AcDbArc
 50
68.7247287742696642
 51
157.5102764229107208
  0
ARC
  5
3D9
100
AcDbEntity
  8
cut
 62
256
370
-1
  6
ByLayer
100
AcDbCircle
 10
792.1831947905232028
 20
-196.3864375103656528
 30
0.0
 40
262.0
100
AcDbArc
 50
157.5102764229127672
 51
190.4912159575308692
  0
ARC
  5
3DA
100
AcDbEntity
  8
cut
 62
256
370
-1
  6
ByLayer
100
AcDbCircle
 10
537.021299206289882
 20
-243.637437942746601
 30
0.0
 40
2.5
100
AcDbArc
 50
190.4912159575261796
 51
279.2767636061739154
  0
LINE
  5
3DB
100
AcDbEntity
100
AcDbLine
  8
cut
 62
256
370
-1
  6
ByLayer
 10
537.4243081736176464
 20
-246.10474087758314
 30
0.0
 11
544.3343516368815926
 21
-244.9760552018197757
 31
0.0
  0
ARC
  5
3DC
100
AcDbEntity
  8
cut
 62
256
370
-1
  6
ByLayer
100
AcDbCircle
 10
792.1831947905232028
 20
-196.3864375103656528
 30
0.0
 40
250.0000000000000284
100
AcDbArc
 50
157.476603182219975
 51
190.5248891982237467
  0
ARC
  5
3DD
100
AcDbEntity
  8
cut
 62
256
370
-1
  6
ByLayer
100
AcDbCircle
 10
543.931342669553942
 20
-242.5087522669830093
 30
0.0
 40
2.5
100
AcDbArc
 50
279.2767636061739154
 51
10.5248891982228301
  0
LINE
  5
3DE
100
AcDbEntity
100
AcDbLine
  8
frame
 62
256
370
-1
  6
ByLayer
 10
520.4452014693451929
 20
-250.0493915046149027
 30
0.0
 11
537.5390064564003296
 21
-87.4020946290828107
 31
0.0
  0
CIRCLE
  5
3DF
100
AcDbEntity
100
AcDbCircle
  8
cut
 62
256
370
-1
  6
ByLayer
 10
572.310319854792283
 20
-133.8969027773781306
 30
0.0
 40
2.5
  0
CIRCLE
  5
3E0
100
AcDbEntity
100
AcDbCircle
  8
cut
 62
256
370
-1
  6
ByLayer
 10
574.622412891017575
 20
-145.6685799151947549
 30
0.0
 40
2.5
  0
CIRCLE
  5
3E1
100
AcDbEntity
100
AcDbCircle
  8
cut
 62
256
370
-1
  6
ByLayer
 10
576.9864104662763111
 20
-157.4467768310021256
 30
0.0
 40
2.5
  0
CIRCLE
  5
3E2
100
AcDbEntity
100
AcDbCircle
  8
cut
 62
256
370
-1
  6
ByLayer
 10
579.3323801544031539
 20
-169.2457473976164408
 30
0.0
 40
2.5
  0
CIRCLE
  5
3E3
100
AcDbEntity
100
AcDbCircle
  8
cut
 62
256
370
-1
  6
ByLayer
 10
579.340617935884211
 20
-248.5894994198930874
 30
0.0
 40
2.5
  0
CIRCLE
  5
3E4
100
AcDbEntity
100
AcDbCircle
  8
cut
 62
256
370
-1
  6
ByLayer
 10
576.9718875575210859
 20
-260.3499106899033109
 30
0.0
 40
2.5
  0
CIRCLE
  5
3E5
100
AcDbEntity
100
AcDbCircle
  8
cut
 62
256
370
-1
  6
ByLayer
 10
574.6486157093958127
 20
-272.1362084565080295
 30
0.0
 40
2.5
  0
CIRCLE
  5
3E6
100
AcDbEntity
100
AcDbCircle
  8
cut
 62
256
370
-1
  6
ByLayer
 10
572.3007385333419279
 20
-283.9347996001828278
 30
0.0
 40
2.5
  0
ARC
  5
3E7
100
AcDbEntity
  8
cut
 62
256
370
-1
  6
ByLayer
100
AcDbCircle
 10
566.9917340062024778
 20
-129.6103062554802534
 30
0.0
 40
2.5
100
AcDbArc
 50
104.7576636650285025
 51
195.8425022769191912
  0
LINE
  5
3E8
100
AcDbEntity
100
AcDbLine
  8
cut
 62
256
370
-1
  6
ByLayer
 10
573.1251738669540146
 20
-125.4093453609426376
 30
0.0
 11
566.3549057704384495
 21
-127.1927765662863692
 31
0.0
  0
ARC
  5
3E9
100
AcDbEntity
  8
cut
 62
256
370
-1
  6
ByLayer
100
AcDbCircle
 10
573.7620021027180428
 20
-127.8268750501364082
 30
0.0
 40
2.5
100
AcDbArc
 50
15.8169737186592041
 51
104.7576636650285025
  0
ARC
  5
3EA
100
AcDbEntity
  8
cut
 62
256
370
-1
  6
ByLayer
100
AcDbCircle
 10
287.5261586176498554
 20
-208.9150486908806386
 30
0.0
 40
300.0000000000000568
100
AcDbArc
 50
344.1822494625961326
 51
15.8169737186549284
  0
ARC
  5
3EB
100
AcDbEntity
  8
cut
 62
256
370
-1
  6
ByLayer
100
AcDbCircle
 10
573.7609026793139719
 20
-290.0071031225786555
 30
0.0
 40
2.5
100
AcDbArc
 50
255.2415595162226793
 51
344.1822494625990885
  0
LINE
  5
3EC
100
AcDbEntity
100
AcDbLine
  8
cut
 62
256
370
-1
  6
ByLayer
 10
573.1240416666328201
 20
-292.4246241774043256
 30
0.0
 11
566.3537977505797016
 21
-290.641101180626265
 31
0.0
  0
ARC
  5
3ED
100
AcDbEntity
  8
cut
 62
256
370
-1
  6
ByLayer
100
AcDbCircle
 10
287.5261586176498554
 20
-208.9150486908806386
 30
0.0
 40
288.0000000000000568
100
AcDbArc
 50
344.1567209043294611
 51
15.8425022769215342
  0
ARC
  5
3EE
100
AcDbEntity
  8
cut
 62
256
370
-1
  6
ByLayer
100
AcDbCircle
 10
566.9906587632610808
 20
-288.2235801258004244
 30
0.0
 40
2.5
100
AcDbArc
 50
164.1567209043281537
 51
255.2415595162226793
  0
CIRCLE
  5
3EF
100
AcDbEntity
100
AcDbCircle
  8
cut
 62
256
370
-1
  6
ByLayer
 10
559.0268837066072365
 20
-141.3214767462597763
 30
0.0
 40
2.5
  0
CIRCLE
  5
3F0
100
AcDbEntity
100
AcDbCircle
  8
cut
 62
256
370
-1
  6
ByLayer
 10
561.368823605419152
 20
-153.1016011356999513
 30
0.0
 40
2.5
  0
CIRCLE
  5
3F1
100
AcDbEntity
100
AcDbCircle
  8
cut
 62
256
370
-1
  6
ByLayer
 10
563.7308927988977985
 20
-164.8618163729872492
 30
0.0
 40
2.5
  0
CIRCLE
  5
3F2
100
AcDbEntity
100
AcDbCircle
  8
cut
 62
256
370
-1
  6
ByLayer
 10
566.0384089761148516
 20
-176.6579665040297584
 30
0.0
 40
2.5
  0
CIRCLE
  5
3F3
100
AcDbEntity
100
AcDbCircle
  8
cut
 62
256
370
-1
  6
ByLayer
 10
566.0540151878520874
 20
-241.1811704165547781
 30
0.0
 40
2.5
  0
CIRCLE
  5
3F4
100
AcDbEntity
100
AcDbCircle
  8
cut
 62
256
370
-1
  6
ByLayer
 10
563.7096270916973708
 20
-252.9608078292655193
 30
0.0
 40
2.5
  0
CIRCLE
  5
3F5
100
AcDbEntity
100
AcDbCircle
  8
cut
 62
256
370
-1
  6
ByLayer
 10
561.3914549415702595
 20
-264.7297547313668815
 30
0.0
 40
2.5
  0
CIRCLE
  5
3F6
100
AcDbEntity
100
AcDbCircle
  8
cut
 62
256
370
-1
  6
ByLayer
 10
559.0091306877986881
 20
-276.511024610802906
 30
0.0
 40
2.5
  0
ARC
  5
3F7
100
AcDbEntity
  8
cut
 62
256
370
-1
  6
ByLayer
100
AcDbCircle
 10
553.5988370181842129
 20
-137.1024801225214276
 30
0.0
 40
2.5
100
AcDbArc
 50
105.2752712257303784
 51
196.5233968177753923
  0
LINE
  5
3F8
100
AcDbEntity
100
AcDbLine
  8
cut
 62
256
370
-1
  6
ByLayer
 10
559.6944530006519471
 20
-132.8461791682703677
 30
0.0
 11
552.9401952085926268
 21
-134.6908020829277746
 31
0.0
  0
ARC
  5
3F9
100
AcDbEntity
  8
cut
 62
256
370
-1
  6
ByLayer
100
AcDbCircle
 10
560.3530948102435332
 20
-135.2578572078638786
 30
0.0
 40
2.5
100
AcDbArc
 50
16.4897235770892472
 51
105.2752712257303784
  0
ARC
  5
3FA
100
AcDbEntity
  8
cut
 62
256
370
-1
  6
ByLayer
100
AcDbCircle
 10
311.52615861709819
 20
-208.9152113874185659
 30
0.0
 40
262.0
100
AcDbArc
 50
343.5087840424691876
 51
16.4897235770872115
  0
ARC
  5
3FB
100
AcDbEntity
  8
cut
 62
256
370
-1
  6
ByLayer
100
AcDbCircle
 10
560.3511761762355263
 20
-282.5790467253589213
 30
0.0
 40
2.5
100
AcDbArc
 50
254.723236393826113
 51
343.5087840424737919
  0
LINE
  5
3FC
100
AcDbEntity
100
AcDbLine
  8
cut
 62
256
370
-1
  6
ByLayer
 10
559.6924715500040293
 20
-284.9907076085225981
 30
0.0
 11
552.9382618070414992
 21
-283.1459087666595451
 31
0.0
  0
ARC
  5
3FD
100
AcDbEntity
  8
cut
 62
256
370
-1
  6
ByLayer
100
AcDbCircle
 10
311.52615861709819
 20
-208.9152113874185659
 30
0.0
 40
250.0000000000000284
100
AcDbArc
 50
343.4751108017762817
 51
16.5233968177800818
  0
ARC
  5
3FE
100
AcDbEntity
  8
cut
 62
256
370
-1
  6
ByLayer
100
AcDbCircle
 10
553.5969664332728826
 20
-280.734247883495641
 30
0.0
 40
2.5
100
AcDbArc
 50
163.4751108017771344
 51
254.723236393826113
  0
LINE
  5
3FF
100
AcDbEntity
100
AcDbLine
  8
frame
 62
256
370
-1
  6
ByLayer
 10
576.1662366630259839
 20
-290.6885489581386537
 30
0.0
 11
576.1673453252816444
 21
-127.1454618262646079
 31
0.0
  0
CIRCLE
  5
400
100
AcDbEntity
100
AcDbCircle
  8
cut
 62
256
370
-1
  6
ByLayer
 10
807.4125130389116975
 20
-241.4329399186210594
 30
0.0
 40
2.5
  0
CIRCLE
  5
401
100
AcDbEntity
100
AcDbCircle
  8
cut
 62
256
370
-1
  6
ByLayer
 10
801.5759336026484334
 20
-251.9139941274945613
 30
0.0
 40
2.5
  0
CIRCLE
  5
402
100
AcDbEntity
100
AcDbCircle
  8
cut
 62
256
370
-1
  6
ByLayer
 10
795.6879752941134711
 20
-262.3852096290645477
 30
0.0
 40
2.5
  0
CIRCLE
  5
403
100
AcDbEntity
100
AcDbCircle
  8
cut
 62
256
370
-1
  6
ByLayer
 10
789.8107431139759456
 20
-272.881752970098205
 30
0.0
 40
2.5
  0
CIRCLE
  5
404
100
AcDbEntity
100
AcDbCircle
  8
cut
 62
256
370
-1
  6
ByLayer
 10
765.2843407458634601
 20
-348.3395997437175993
 30
0.0
 40
2.5
  0
CIRCLE
  5
405
100
AcDbEntity
100
AcDbCircle
  8
cut
 62
256
370
-1
  6
ByLayer
 10
763.902970264280043
 20
-360.2563934583781702
 30
0.0
 40
2.5
  0
CIRCLE
  5
406
100
AcDbEntity
100
AcDbCircle
  8
cut
 62
256
370
-1
  6
ByLayer
 10
762.4703667839202126
 20
-372.1837592359258906
 30
0.0
 40
2.5
  0
CIRCLE
  5
407
100
AcDbEntity
100
AcDbCircle
  8
cut
 62
256
370
-1
  6
ByLayer
 10
761.0573654985897747
 20
-384.130420174325991
 30
0.0
 40
2.5
  0
ARC
  5
408
100
AcDbEntity
  8
cut
 62
256
370
-1
  6
ByLayer
100
AcDbCircle
 10
813.7954199409831517
 20
-238.9996777769981691
 30
0.0
 40
2.5
100
AcDbArc
 50
326.1574977230807804
 51
57.2423363349715189
  0
LINE
  5
409
100
AcDbEntity
100
AcDbLine
  8
cut
 62
256
370
-1
  6
ByLayer
 10
809.2603403032275082
 20
-233.1089893925982324
 30
0.0
 11
815.1481373427340031
 21
-236.8972611601022891
 31
0.0
  0
ARC
  5
40A
100
AcDbEntity
  8
cut
 62
256
370
-1
  6
ByLayer
100
AcDbCircle
 10
807.9076229014766568
 20
-235.2114060094941124
 30
0.0
 40
2.5
100
AcDbArc
 50
57.2423363349715189
 51
146.1830262813407444
  0
ARC
  5
40B
100
AcDbEntity
  8
cut
 62
256
370
-1
  6
ByLayer
100
AcDbCircle
 10
1055.0764633473736467
 20
-400.78258198113042
 30
0.0
 40
300.0000000000000568
100
AcDbArc
 50
146.1830262813450076
 51
177.8177505374038674
  0
ARC
  5
40C
100
AcDbEntity
  8
cut
 62
256
370
-1
  6
ByLayer
100
AcDbCircle
 10
757.7922218892791761
 20
-389.4543084725398785
 30
0.0
 40
2.5
100
AcDbArc
 50
177.8177505374009115
 51
266.7584404837772354
  0
LINE
  5
40D
100
AcDbEntity
100
AcDbLine
  8
cut
 62
256
370
-1
  6
ByLayer
 10
757.6508576151635452
 20
-391.9503085009862389
 30
0.0
 11
764.6408811242964703
 21
-392.3461977590618517
 31
0.0
  0
ARC
  5
40E
100
AcDbEntity
  8
cut
 62
256
370
-1
  6
ByLayer
100
AcDbCircle
 10
1055.0764633473736467
 20
-400.78258198113042
 30
0.0
 40
288.0000000000000568
100
AcDbArc
 50
146.1574977230784214
 51
177.8432790956704821
  0
ARC
  5
40F
100
AcDbEntity
  8
cut
 62
256
370
-1
  6
ByLayer
100
AcDbCircle
 10
764.7822453984118738
 20
-389.8501977306157187
 30
0.0
 40
2.5
100
AcDbArc
 50
266.7584404837772354
 51
357.8432790956719032
  0
CIRCLE
  5
410
100
AcDbEntity
100
AcDbCircle
  8
cut
 62
256
370
-1
  6
ByLayer
 10
817.7514920140550885
 20
-252.5989368859250135
 30
0.0
 40
2.5
  0
CIRCLE
  5
411
100
AcDbEntity
100
AcDbCircle
  8
cut
 62
256
370
-1
  6
ByLayer
 10
811.8839161803308571
 20
-263.0788017207319172
 30
0.0
 40
2.5
  0
CIRCLE
  5
412
100
AcDbEntity
100
AcDbCircle
  8
cut
 62
256
370
-1
  6
ByLayer
 10
806.0033485161037561
 20
-273.5335115325131028
 30
0.0
 40
2.5
  0
CIRCLE
  5
413
100
AcDbEntity
100
AcDbCircle
  8
cut
 62
256
370
-1
  6
ByLayer
 10
800.1635593606146131
 20
-284.0392552682817495
 30
0.0
 40
2.5
  0
CIRCLE
  5
414
100
AcDbEntity
100
AcDbCircle
  8
cut
 62
256
370
-1
  6
ByLayer
 10
780.2099504307567486
 20
-345.399646216885003
 30
0.0
 40
2.5
  0
CIRCLE
  5
415
100
AcDbEntity
100
AcDbCircle
  8
cut
 62
256
370
-1
  6
ByLayer
 10
778.799487858227053
 20
-357.327202900959719
 30
0.0
 40
2.5
  0
CIRCLE
  5
416
100
AcDbEntity
100
AcDbCircle
  8
cut
 62
256
370
-1
  6
ByLayer
 10
777.3673959888536729
 20
-369.2364911324109471
 30
0.0
 40
2.5
  0
CIRCLE
  5
417
100
AcDbEntity
100
AcDbCircle
  8
cut
 62
256
370
-1
  6
ByLayer
 10
775.9925083862675592
 20
-381.1773233020076077
 30
0.0
 40
2.5
  0
ARC
  5
418
100
AcDbEntity
  8
cut
 62
256
370
-1
  6
ByLayer
100
AcDbCircle
 10
824.2176128437798752
 20
-250.2637913276744257
 30
0.0
 40
2.5
100
AcDbArc
 50
325.4766031822246646
 51
56.72472877426965
  0
LINE
  5
419
100
AcDbEntity
100
AcDbLine
  8
cut
 62
256
370
-1
  6
ByLayer
 10
819.7356068708589873
 20
-244.3321596400546696
 30
0.0
 11
825.589267927891683
 21
-248.173680725282793
 31
0.0
  0
ARC
  5
41A
100
AcDbEntity
  8
cut
 62
256
370
-1
  6
ByLayer
100
AcDbCircle
 10
818.3639517867469522
 20
-246.4222702424465297
 30
0.0
 40
2.5
100
AcDbArc
 50
56.72472877426965
 51
145.5102764229106924
  0
ARC
  5
41B
100
AcDbEntity
  8
cut
 62
256
370
-1
  6
ByLayer
100
AcDbCircle
 10
1032.251056680819147
 20
-393.36632884990496
 30
0.0
 40
262.0
100
AcDbArc
 50
145.5102764229127388
 51
178.4912159575308692
  0
ARC
  5
41C
100
AcDbEntity
  8
cut
 62
256
370
-1
  6
ByLayer
100
AcDbCircle
 10
772.8410253236844483
 20
-386.5336404119277631
 30
0.0
 40
2.5
100
AcDbArc
 50
178.4912159575261796
 51
267.2767636061739154
  0
LINE
  5
41D
100
AcDbEntity
100
AcDbLine
  8
cut
 62
256
370
-1
  6
ByLayer
 10
772.7222464532086406
 20
-389.0308171337335352
 30
0.0
 11
779.7159558350164161
 21
-389.3634747680744113
 31
0.0
  0
ARC
  5
41E
100
AcDbEntity
  8
cut
 62
256
370
-1
  6
ByLayer
100
AcDbCircle
 10
1032.251056680819147
 20
-393.36632884990496
 30
0.0
 40
250.0000000000000284
100
AcDbArc
 50
145.476603182219975
 51
178.5248891982237183
  0
ARC
  5
41F
100
AcDbEntity
  8
cut
 62
256
370
-1
  6
ByLayer
100
AcDbCircle
 10
779.8347347054922238
 20
-386.8662980462686392
 30
0.0
 40
2.5
100
AcDbArc
 50
267.2767636061739154
 51
358.5248891982228088
  0
LINE
  5
420
100
AcDbEntity
100
AcDbLine
  8
frame
 62
256
370
-1
  6
ByLayer
 10
755.2940349862698213
 20
-389.3591128968373596
 30
0.0
 11
805.8305738220993817
 21
-233.8200515895641729
 31
0.0
  0
CIRCLE
  5
421
100
AcDbEntity
100
AcDbCircle
  8
cut
 62
256
370
-1
  6
ByLayer
 10
830.1752364207403616
 20
-286.5281991870117508
 30
0.0
 40
2.5
  0
CIRCLE
  5
422
100
AcDbEntity
100
AcDbCircle
  8
cut
 62
256
370
-1
  6
ByLayer
 10
829.9893353793130473
 20
-298.5233481084696905
 30
0.0
 40
2.5
  0
CIRCLE
  5
423
100
AcDbEntity
100
AcDbCircle
  8
cut
 62
256
370
-1
  6
ByLayer
 10
829.8528491001430893
 20
-310.5356658955981857
 30
0.0
 40
2.5
  0
CIRCLE
  5
424
100
AcDbEntity
100
AcDbCircle
  8
cut
 62
256
370
-1
  6
ByLayer
 10
829.6944098015648024
 20
-322.5645551709262691
 30
0.0
 40
2.5
  0
CIRCLE
  5
425
100
AcDbEntity
100
AcDbCircle
  8
cut
 62
256
370
-1
  6
ByLayer
 10
813.2059739289792333
 20
-400.1761685758106069
 30
0.0
 40
2.5
  0
CIRCLE
  5
426
100
AcDbEntity
100
AcDbCircle
  8
cut
 62
256
370
-1
  6
ByLayer
 10
808.4438790007380931
 20
-411.1870999051570834
 30
0.0
 40
2.5
  0
CIRCLE
  5
427
100
AcDbEntity
100
AcDbCircle
  8
cut
 62
256
370
-1
  6
ByLayer
 10
803.7208671195054421
 20
-422.2328034089226776
 30
0.0
 40
2.5
  0
CIRCLE
  5
428
100
AcDbEntity
100
AcDbCircle
  8
cut
 62
256
370
-1
  6
ByLayer
 10
798.9712316589817647
 20
-433.2854159146414759
 30
0.0
 40
2.5
  0
ARC
  5
429
100
AcDbEntity
  8
cut
 62
256
370
-1
  6
ByLayer
100
AcDbCircle
 10
825.8641079643667808
 20
-281.2294789072639105
 30
0.0
 40
2.5
100
AcDbArc
 50
92.7576636650285167
 51
183.8425022769191628
  0
LINE
  5
42A
100
AcDbEntity
100
AcDbLine
  8
cut
 62
256
370
-1
  6
ByLayer
 10
832.7369463310486708
 20
-278.3955329394732416
 30
0.0
 11
825.7438286387570088
 21
-278.7323740068179632
 31
0.0
  0
ARC
  5
42B
100
AcDbEntity
  8
cut
 62
256
370
-1
  6
ByLayer
100
AcDbCircle
 10
832.8572256566582155
 20
-280.8926378399189616
 30
0.0
 40
2.5
100
AcDbArc
 50
3.8169737186591868
 51
92.7576636650285167
  0
ARC
  5
42C
100
AcDbEntity
  8
cut
 62
256
370
-1
  6
ByLayer
100
AcDbCircle
 10
536.0171428207505642
 20
-300.6970621428713457
 30
0.0
 40
300.0000000000000568
100
AcDbArc
 50
332.1822494625961326
 51
3.816973718654912
  0
ARC
  5
42D
100
AcDbEntity
  8
cut
 62
256
370
-1
  6
ByLayer
100
AcDbCircle
 10
799.1369848225421038
 20
-439.5286102324608919
 30
0.0
 40
2.5
100
AcDbArc
 50
243.2415595162226793
 51
332.1822494625990885
  0
LINE
  5
42E
100
AcDbEntity
100
AcDbLine
  8
cut
 62
256
370
-1
  6
ByLayer
 10
798.0114098608905806
 20
-441.7608918019997191
 30
0.0
 11
791.7599272998930928
 21
-438.6087302020124525
 31
0.0
  0
ARC
  5
42F
100
AcDbEntity
  8
cut
 62
256
370
-1
  6
ByLayer
100
AcDbCircle
 10
536.0171428207505642
 20
-300.6970621428713457
 30
0.0
 40
288.0000000000000568
100
AcDbArc
 50
332.1567209043294611
 51
3.8425022769215178
  0
ARC
  5
430
100
AcDbEntity
  8
cut
 62
256
370
-1
  6
ByLayer
100
AcDbCircle
 10
792.885502261544957
 20
-436.3764486324735117
 30
0.0
 40
2.5
100
AcDbArc
 50
152.1567209043281252
 51
243.2415595162226793
  0
CIRCLE
  5
431
100
AcDbEntity
100
AcDbCircle
  8
cut
 62
256
370
-1
  6
ByLayer
 10
815.638419495420635
 20
-291.0287467317052688
 30
0.0
 40
2.5
  0
CIRCLE
  5
432
100
AcDbEntity
100
AcDbCircle
  8
cut
 62
256
370
-1
  6
ByLayer
 10
815.4799568086542649
 20
-303.0383638237374271
 30
0.0
 40
2.5
  0
CIRCLE
  5
433
100
AcDbEntity
100
AcDbCircle
  8
cut
 62
256
370
-1
  6
ByLayer
 10
815.3453228886575062
 20
-315.0326919420479044
 30
0.0
 40
2.5
  0
CIRCLE
  5
434
100
AcDbEntity
100
AcDbCircle
  8
cut
 62
256
370
-1
  6
ByLayer
 10
815.1498567821716961
 20
-327.0508274806172722
 30
0.0
 40
2.5
  0
CIRCLE
  5
435
100
AcDbEntity
100
AcDbCircle
  8
cut
 62
256
370
-1
  6
ByLayer
 10
801.7499935383067395
 20
-390.1672892931812839
 30
0.0
 40
2.5
  0
CIRCLE
  5
436
100
AcDbEntity
100
AcDbCircle
  8
cut
 62
256
370
-1
  6
ByLayer
 10
797.0077116151672953
 20
-401.2020876729339989
 30
0.0
 40
2.5
  0
CIRCLE
  5
437
100
AcDbEntity
100
AcDbCircle
  8
cut
 62
256
370
-1
  6
ByLayer
 10
792.2932954388721782
 20
-412.2318797570484321
 30
0.0
 40
2.5
  0
CIRCLE
  5
438
100
AcDbEntity
100
AcDbCircle
  8
cut
 62
256
370
-1
  6
ByLayer
 10
787.5135669452616867
 20
-423.2603875595383442
 30
0.0
 40
2.5
  0
ARC
  5
439
100
AcDbEntity
  8
cut
 62
256
370
-1
  6
ByLayer
100
AcDbCircle
 10
811.2061673720644421
 20
-285.7733909418636813
 30
0.0
 40
2.5
100
AcDbArc
 50
93.2752712257303784
 51
184.5233968177753923
  0
LINE
  5
43A
100
AcDbEntity
100
AcDbLine
  8
cut
 62
256
370
-1
  6
ByLayer
 10
818.0535142483375921
 20
-282.8774502009525804
 30
0.0
 11
811.0633345251893616
 21
-283.277474521417389
 31
0.0
  0
ARC
  5
43B
100
AcDbEntity
  8
cut
 62
256
370
-1
  6
ByLayer
100
AcDbCircle
 10
818.1963470952126727
 20
-285.3733666213988727
 30
0.0
 40
2.5
100
AcDbArc
 50
4.4897235770892294
 51
93.2752712257303784
  0
ARC
  5
43C
100
AcDbEntity
  8
cut
 62
256
370
-1
  6
ByLayer
100
AcDbCircle
 10
559.4926514113099074
 20
-305.6871018636113604
 30
0.0
 40
262.0
100
AcDbArc
 50
331.5087840424691876
 51
4.4897235770871946
  0
ARC
  5
43D
100
AcDbEntity
  8
cut
 62
256
370
-1
  6
ByLayer
100
AcDbCircle
 10
787.5646727820950446
 20
-429.4748357787462965
 30
0.0
 40
2.5
100
AcDbArc
 50
242.7232363938260846
 51
331.5087840424737351
  0
LINE
  5
43E
100
AcDbEntity
100
AcDbLine
  8
cut
 62
256
370
-1
  6
ByLayer
 10
786.4189499404566277
 20
-431.6968436928071924
 30
0.0
 11
780.1958911319553636
 21
-428.4880789640051262
 31
0.0
  0
ARC
  5
43F
100
AcDbEntity
  8
cut
 62
256
370
-1
  6
ByLayer
100
AcDbCircle
 10
559.4926514113099074
 20
-305.6871018636113604
 30
0.0
 40
250.0000000000000284
100
AcDbArc
 50
331.4751108017762249
 51
4.5233968177800641
  0
LINE
  5
440
100
AcDbEntity
100
AcDbLine
  8
frame
 62
256
370
-1
  6
ByLayer
 10
801.3480759318014179
 20
-440.6952618970790354
 30
0.0
 11
835.3516801342708504
 21
-280.7262141062808496
 31
0.0
  0
LINE
  5
441
100
AcDbEntity
100
AcDbLine
  8
cut
 62
256
370
-1
  6
ByLayer
 10
216.7741935483999782
 20
-585.3485437610788722
 30
0.0
 11
216.7741935483999782
 21
-530.9806335045603873
 31
0.0
  0
LINE
  5
442
100
AcDbEntity
100
AcDbLine
  8
cut
 62
256
370
-1
  6
ByLayer
 10
500.6954271276353552
 20
-445.6661991585117448
 30
0.0
 11
840.1984848441800295
 21
-445.6661991585117448
 31
0.0
  0
ENDSEC
  0
SECTION
  2
OBJECTS
  0
DICTIONARY
  5
C
100
AcDbDictionary
280
0
281
1
  3
ACAD_GROUP
350
D
  3
ACAD_LAYOUT
350
1A
  3
ACAD_MLINESTYLE
350
17
  3
ACAD_PLOTSETTINGS
350
19
  3
ACAD_PLOTSTYLENAME
350
E
  3
AcDbVariableDictionary
350
443
  0
DICTIONARY
  5
D
100
AcDbDictionary
280
0
281
1
  0
ACDBDICTIONARYWDFLT
  5
E
100
AcDbDictionary
281
1
  3
Normal
350
F
100
AcDbDictionaryWithDefault
340
F
  0
ACDBPLACEHOLDER
  5
F
  0
DICTIONARY
  5
17
100
AcDbDictionary
280
0
281
1
  3
Standard
350
18
  0
MLINESTYLE
  5
18
100
AcDbMlineStyle
  2
STANDARD
 70
0
  3

 62
256
 51
90.0
 52
90.0
 71
2
 49
0.5
 62
256
  6
BYLAYER
 49
-0.5
 62
256
  6
BYLAYER
  0
DICTIONARY
  5
19
100
AcDbDictionary
280
0
281
1
  0
DICTIONARY
  5
1A
100
AcDbDictionary
281
1
  3
Layout1
350
1E
  3
Layout2
350
26
  3
Model
350
22
  0
LAYOUT
  5
1E
100
AcDbPlotSettings
  1

  2
C:\Program Files\AutoCAD 2002\plotters\DWF ePlot (optimized for plotting).pc3
  4

  6

 40
0.0
 41
0.0
 42
0.0
 43
0.0
 44
0.0
 45
0.0
 46
0.0
 47
0.0
 48
0.0
 49
0.0
140
0.0
141
0.0
142
1.0
143
1.0
 70
688
 72
0
 73
0
 74
5
  7

 75
16
147
1.0
148
0.0
149
0.0
100
AcDbLayout
  1
Layout1
 70
1
 71
1
 10
0.0
 20
0.0
 11
420.0
 21
297.0
 12
0.0
 22
0.0
 32
0.0
 14
100000000000000000000.0
 24
100000000000000000000.0
 34
100000000000000000000.0
 15
-100000000000000000000.0
 25
-100000000000000000000.0
 35
-100000000000000000000.0
146
0.0
 13
0.0
 23
0.0
 33
0.0
 16
1.0
 26
0.0
 36
0.0
 17
0.0
 27
1.0
 37
0.0
 76
0
330
1B
  0
LAYOUT
  5
22
100
AcDbPlotSettings
  1

  2
C:\Program Files\AutoCAD 2002\plotters\DWF ePlot (optimized for plotting).pc3
  4

  6

 40
0.0
 41
0.0
 42
0.0
 43
0.0
 44
0.0
 45
0.0
 46
0.0
 47
0.0
 48
0.0
 49
0.0
140
0.0
141
0.0
142
1.0
143
1.0
 70
1712
 72
0
 73
0
 74
0
  7

 75
0
147
1.0
148
0.0
149
0.0
100
AcDbLayout
  1
Model
 70
1
 71
0
 10
0.0
 20
0.0
 11
12.0
 21
9.0
 12
0.0
 22
0.0
 32
0.0
 14
0.0
 24
0.0
 34
0.0
 15
0.0
 25
0.0
 35
0.0
146
0.0
 13
0.0
 23
0.0
 33
0.0
 16
1.0
 26
0.0
 36
0.0
 17
0.0
 27
1.0
 37
0.0
 76
0
330
1F
  0
LAYOUT
  5
26
100
AcDbPlotSettings
  1

  2
C:\Program Files\AutoCAD 2002\plotters\DWF ePlot (optimized for plotting).pc3
  4

  6

 40
0.0
 41
0.0
 42
0.0
 43
0.0
 44
0.0
 45
0.0
 46
0.0
 47
0.0
 48
0.0
 49
0.0
140
0.0
141
0.0
142
1.0
143
1.0
 70
688
 72
0
 73
0
 74
5
  7

 75
16
147
1.0
148
0.0
149
0.0
100
AcDbLayout
  1
Layout2
 70
1
 71
2
 10
0.0
 20
0.0
 11
12.0
 21
9.0
 12
0.0
 22
0.0
 32
0.0
 14
0.0
 24
0.0
 34
0.0
 15
0.0
 25
0.0
 35
0.0
146
0.0
 13
0.0
 23
0.0
 33
0.0
 16
1.0
 26
0.0
 36
0.0
 17
0.0
 27
1.0
 37
0.0
 76
0
330
23
  0
DICTIONARY
  5
443
100
AcDbDictionary
281
1
  3
DIMASSOC
350
445
  3
HIDETEXT
350
444
  0
DICTIONARYVAR
  5
444
100
DictionaryVariables
280
0
  1
2
  0
DICTIONARYVAR
  5
445
100
DictionaryVariables
280
0
  1
1
  0
ENDSEC
  0
EOF
