999
dxflib 2.2.0.0
  0
SECTION
  2
HEADER
  9
$ACADVER
  1
AC1015
  9
$HANDSEED
  5
FFFF
  9
$OBSCOLOR
 70
257
  9
$DIMLIM
 70
0
  9
$LENSLENGTH
 40
50.0
  9
$LONGITUDE
 40
-122.3940000000000055
  9
$DIMLUNIT
 70
2
  9
$DIMTIX
 70
1
  9
$LOFTANG1
 40
1.5707963267948959
  9
$AUNITS
 70
0
  9
$LOFTANG2
 40
1.5707963267948959
  9
$SHOWHIST
280
1
  9
$QTEXTMODE
 70
0
  9
$USERR1
 40
0.0
  9
$DIMALTU
 70
2
  9
$UCSORGBOTTOM
 10
0.0
 20
0.0
 30
0.0
  9
$USERR2
 40
0.0
  9
$USERR3
 40
0.0
  9
$USERR4
 40
2449860.502452545799315
  9
$LIMMAX
 10
2116.6635535499221987
 20
1609.6692052079729365
  9
$USERR5
 40
0.0
  9
$PELEVATION
 40
0.0
  9
$DIMALTZ
 70
0
  9
$DIMADEC
 70
4
  9
$INTERFEREOBJVS
345
76E1EC372
  9
$JOINSTYLE
280
0
  9
$DIMATFIT
 70
3
  9
$TILEMODE
 70
1
  9
$PEXTMIN
 10
-2.9081081266376301
 20
-0.4363999880392729
 30
0.0
  9
$TDUSRTIMER
 40
0.0039583333
  9
$DWGCODEPAGE
  3
ANSI_1252
  9
$SORTENTS
280
127
  9
$UCSORTHOVIEW
 70
1
  9
$DIMSOXD
 70
0
  9
$DIMTZIN
 70
0
  9
$SPLINETYPE
 70
6
  9
$DIMLFAC
 40
1.0
  9
$DIMSE1
 70
1
  9
$FILLETRAD
 40
0.0
  9
$DIMSE2
 70
1
  9
$PSTYLEMODE
290
1
  9
$TEXTSTYLE
  7
ARIAL NARROW90
  9
$DIMTSZ
 40
0.0
  9
$PUCSXDIR
 10
1.0
 20
0.0
 30
0.0
  9
$DIMTFILL
 70
0
  9
$XCLIPFRAME
280
0
  9
$DIMTXSTY
  7
ARIAL NARROW75
  9
$PLIMMAX
 10
12.0
 20
9.0
  9
$LOFTNORMALS
280
1
  9
$DIMTFILLCLR
 70
0
  9
$DIMTM
 40
0.0
  9
$UCSORG
 10
0.0
 20
0.0
 30
0.0
  9
$DIMJOGANG
 40
0.7853981633974483
  9
$DIMTP
 40
0.0
  9
$PSLTSCALE
 70
0
  9
$ANGBASE
 50
0.0
  9
$PUCSYDIR
 10
0.0
 20
1.0
 30
0.0
  9
$EXTNAMES
290
1
  9
$LIGHTGLYPHDISPLAY
280
1
  9
$DIMASZ
 40
1.0
  9
$PUCSORTHOVIEW
 70
0
  9
$INSBASE
 10
0.0
 20
0.0
 30
0.0
  9
$UNITMODE
 70
0
  9
$MEASUREMENT
 70
0
  9
$INDEXCTL
280
0
  9
$REALWORLDSCALE
290
1
  9
$EXTMAX
 10
41.0982250721740385
 20
34.299472449551331
 30
0.0
  9
$ELEVATION
 40
0.0
  9
$TDCREATE
 40
2457931.4053240739740431
  9
$STEPSPERSEC
 40
2.0
  9
$DIMDEC
 70
4
  9
$LATITUDE
 40
37.7950000000000017
  9
$CELTYPE
  6
ByLayer
  9
$MENU
  1
RW-CAD
  9
$ANGDIR
 70
0
  9
$DIMALTTD
 70
2
  9
$TREEDEPTH
 70
3020
  9
$LTSCALE
 40
7.0
  9
$PROXYGRAPHICS
 70
1
  9
$DIMTMOVE
 70
2
  9
$DIMAZIN
 70
2
  9
$TDUPDATE
 40
2457931.4092824067920446
  9
$DIMTOLJ
 70
1
  9
$DIMCEN
 40
0.09
  9
$DIMTVP
 40
0.0
  9
$TRACEWID
 40
25.0
  9
$CMLSTYLE
  2
Standard
  9
$DISPSILH
 70
1
  9
$DIMSTYLE
  2
Kopie von 05_BEM 2 cm
  9
$STEPSIZE
 40
6.0
  9
$SKETCHINC
 40
10.0
  9
$FILLMODE
 70
1
  9
$PLINEGEN
 70
0
  9
$DIMLWD
 70
-2
  9
$LASTSAVEDBY
  1
Jonathan
  9
$THICKNESS
 40
0.0
  9
$DIMLWE
 70
-2
  9
$CELTSCALE
 40
4.0
  9
$PUCSORG
 10
0.0
 20
0.0
 30
0.0
  9
$DIMALTTZ
 70
0
  9
$INSUNITS
 70
0
  9
$UCSORGBACK
 10
0.0
 20
0.0
 30
0.0
  9
$PLINEWID
 40
0.0
  9
$PEXTMAX
 10
13.2614404058729907
 20
8.3097331080098797
 30
0.0
  9
$DIMJUST
 70
0
  9
$DIMLDRBLK
  1
None
  9
$CSHADOW
280
0
  9
$DIMASSOC
280
2
  9
$DIMTXTDIRECTION
 70
0
  9
$UCSYDIR
 10
0.0
 20
1.0
 30
0.0
  9
$PUCSORGBACK
 10
0.0
 20
0.0
 30
0.0
  9
$PDSIZE
 40
20.0
  9
$PUCSORGBOTTOM
 10
0.0
 20
0.0
 30
0.0
  9
$REQUIREDVERSIONS
160
0
  9
$DIMUPT
 70
0
  9
$TILEMODELIGHTSYNCH
280
1
  9
$DIMTAD
 70
1
  9
$SHADOWPLANELOCATION
 40
0.0
  9
$UCSXDIR
 10
1.0
 20
0.0
 30
0.0
  9
$MAXACTVP
 70
16
  9
$DIMSAH
 70
0
  9
$HALOGAP
280
0
  9
$TDUCREATE
 40
2457931.3219907409511507
  9
$DIMFRAC
 70
0
  9
$USERI1
 70
0
  9
$USERI2
 70
0
  9
$UCSORGRIGHT
 10
0.0
 20
0.0
 30
0.0
  9
$USERI3
 70
0
  9
$CELWEIGHT
370
-1
  9
$LWDISPLAY
290
0
  9
$SKPOLY
 70
1
  9
$USERI4
 70
0
  9
$USERI5
 70
1
  9
$STYLESHEET
  1
EP - ZIG.ctb
  9
$LOFTPARAM
 70
7
  9
$LIMMIN
 10
-104.2394269729205973
 20
-74.1533448767115857
  9
$ACADMAINTVER
 70
125
  9
$UCSORGTOP
 10
0.0
 20
0.0
 30
0.0
  9
$PSOLHEIGHT
 40
4.0
  9
$MIRRTEXT
 70
0
  9
$TDUUPDATE
 40
2457931.3259490737691522
  9
$TEXTSIZE
 40
4.4000000000000004
  9
$CMATERIAL
347
76E1EC365
  9
$DIMGAP
 40
5.0
  9
$LUPREC
 70
0
  9
$INTERFERECOLOR
 62
1
  9
$CECOLOR
 62
256
  9
$TIMEZONE
 70
-8000
  9
$DIMSD1
 70
0
  9
$3DDWFPREC
 40
2.0
  9
$DIMSD2
 70
0
  9
$WORLDVIEW
 70
1
  9
$PUCSORGRIGHT
 10
0.0
 20
0.0
 30
0.0
  9
$PLIMCHECK
 70
0
  9
$DIMTFAC
 40
1.0
  9
$CMLJUST
 70
0
  9
$DWFFRAME
280
2
  9
$USRTIMER
 70
1
  9
$SURFU
 70
6
  9
$SURFV
 70
6
  9
$DIMASO
 70
1
  9
$PSOLWIDTH
 40
0.25
  9
$DIMDLE
 40
0.0
  9
$EXTMIN
 10
-0.9017749278259543
 20
0.299472449551331
 30
0.0
  9
$UCSORGLEFT
 10
0.0
 20
0.0
 30
0.0
  9
$OLESTARTUP
290
0
  9
$PUCSORGFRONT
 10
0.0
 20
0.0
 30
0.0
  9
$DIMDLI
 40
0.0
  9
$LUNITS
 70
2
  9
$DIMCLRD
 70
256
  9
$SHADEDIF
 70
70
  9
$DIMBLK
  1
BEM 100 ÜP
  9
$DIMCLRE
 70
0
  9
$SPLINESEGS
 70
100
  9
$PUCSORGLEFT
 10
0.0
 20
0.0
 30
0.0
  9
$INTERSECTIONDISPLAY
280
0
  9
$DIMALTRND
 40
0.0
  9
$DIMRND
 40
0.1
  9
$DIMALT
 70
0
  9
$FINGERPRINTGUID
  2
{A7D73E08-E4A8-D14F-BFD4-951A4ACB566E}
  9
$DIMCLRT
 70
8
  9
$DIMFXLON
 70
0
  9
$PUCSORGTOP
 10
0.0
 20
0.0
 30
0.0
  9
$OBSLTYPE
280
0
  9
$DIMTOH
 70
0
  9
$UCSORGFRONT
 10
0.0
 20
0.0
 30
0.0
  9
$VISRETAIN
 70
1
  9
$SHADEDGE
 70
1
  9
$CAMERADISPLAY
290
0
  9
$DIMTOL
 70
0
  9
$SURFTYPE
 70
6
  9
$VERSIONGUID
  2
{700EB58E-F92A-1542-ADB7-81E1C9E975AE}
  9
$CHAMFERA
 40
25.0
  9
$SURFTAB1
 70
6
  9
$CHAMFERB
 40
25.0
  9
$SURFTAB2
 70
6
  9
$CHAMFERC
 40
0.0
  9
$AUPREC
 70
1
  9
$NORTHDIRECTION
 40
0.0
  9
$CHAMFERD
 40
0.0
  9
$DIMTDEC
 70
4
  9
$PDMODE
 70
35
  9
$SPLFRAME
 70
0
  9
$PLIMMIN
 10
0.0
 20
0.0
  9
$SOLIDHIST
280
1
  9
$XEDIT
290
1
  9
$CAMERAHEIGHT
 40
0.0
  9
$DIMDSEP
 70
46
  9
$DIMARCSYM
 70
0
  9
$LIMCHECK
 70
0
  9
$PINSBASE
 10
0.0
 20
0.0
 30
0.0
  9
$ORTHOMODE
 70
1
  9
$PSVPSCALE
 40
0.0
  9
$CLAYER
  8
DEFPOINTS
  9
$DIMSHO
 70
1
  9
$DIMTOFL
 70
1
  9
$LOFTMAG1
 40
0.0
  9
$DIMTXT
 40
30.0
  9
$DIMEXE
 40
0.18
  9
$TDINDWG
 40
0.0039699074
  9
$LOFTMAG2
 40
0.0
  9
$REGENMODE
 70
0
  9
$ATTMODE
 70
1
  9
$CMLSCALE
 40
1.0
  9
$DIMTIH
 70
0
  9
$DIMZIN
 70
8
  9
$CEPSNTYPE
380
0
  9
$DIMFXL
 40
1.0
  9
$HIDETEXT
280
1
  9
$INTERFEREVPVS
346
76E1EC36F
  9
$DIMSCALE
 40
0.02
  9
$INTERSECTIONCOLOR
 70
257
  9
$DIMALTD
 70
2
  9
$DIMAUNIT
 70
0
  9
$DIMALTF
 40
25.3999999999999986
  9
$DIMEXO
 40
0.0625
  9
$DGNFRAME
280
0
  9
$ENDCAPS
280
0
  0
ENDSEC
  0
SECTION
  2
TABLES
  0
TABLE
  2
VPORT
  5
8
100
AcDbSymbolTable
 70
1
  0
VPORT
  5
30
100
AcDbSymbolTableRecord
100
AcDbViewportTableRecord
  2
*Active
 70
0
 10
0.0
 20
0.0
 11
1.0
 21
1.0
 12
286.3055555555554861
 22
148.5
 13
0.0
 23
0.0
 14
10.0
 24
10.0
 15
10.0
 25
10.0
 16
0.0
 26
0.0
 36
1.0
 17
0.0
 27
0.0
 37
0.0
 40
297.0
 41
1.92798353909465
 42
50.0
 43
0.0
 44
0.0
 50
0.0
 51
0.0
 71
0
 72
100
 73
1
 74
3
 75
1
 76
1
 77
0
 78
0
281
0
 65
1
110
0.0
120
0.0
130
0.0
111
1.0
121
0.0
131
0.0
112
0.0
122
1.0
132
0.0
 79
0
146
0.0
  0
ENDTAB
  0
TABLE
  2
LTYPE
  5
5
100
AcDbSymbolTable
 70
21
  0
LTYPE
  5
14
100
AcDbSymbolTableRecord
100
AcDbLinetypeTableRecord
  2
ByBlock
 70
0
  3

 72
65
 73
0
 40
0.0
  0
LTYPE
  5
15
100
AcDbSymbolTableRecord
100
AcDbLinetypeTableRecord
  2
ByLayer
 70
0
  3

 72
65
 73
0
 40
0.0
  0
LTYPE
  5
16
100
AcDbSymbolTableRecord
100
AcDbLinetypeTableRecord
  2
CONTINUOUS
 70
0
  3
Solid line
 72
65
 73
0
 40
0.0
  0
LTYPE
  5
31
100
AcDbSymbolTableRecord
100
AcDbLinetypeTableRecord
  2
DOT
 70
0
  3
Dot . . . . . . . . . . . . . . . . . . . . . .
 72
65
 73
2
 40
6.3499999999999996
 49
0.0
 74
0
 49
-6.3499999999999996
 74
0
  0
LTYPE
  5
32
100
AcDbSymbolTableRecord
100
AcDbLinetypeTableRecord
  2
DOT2
 70
0
  3
Dot (.5x) .....................................
 72
65
 73
2
 40
3.1749999999999998
 49
0.0
 74
0
 49
-3.1749999999999998
 74
0
  0
LTYPE
  5
33
100
AcDbSymbolTableRecord
100
AcDbLinetypeTableRecord
  2
DOTX2
 70
0
  3
Dot (2x) .  .  .  .  .  .  .  .  .  .  .  .  .
 72
65
 73
2
 40
12.6999999999999993
 49
0.0
 74
0
 49
-12.6999999999999993
 74
0
  0
LTYPE
  5
34
100
AcDbSymbolTableRecord
100
AcDbLinetypeTableRecord
  2
DASHED
 70
0
  3
Dashed __ __ __ __ __ __ __ __ __ __ __ __ __ _
 72
65
 73
2
 40
19.0500000000000007
 49
12.6999999999999993
 74
0
 49
-6.3499999999999996
 74
0
  0
LTYPE
  5
35
100
AcDbSymbolTableRecord
100
AcDbLinetypeTableRecord
  2
DASHED2
 70
0
  3
Dashed (.5x) _ _ _ _ _ _ _ _ _ _ _ _ _ _ _ _ _
 72
65
 73
2
 40
9.5250000000000004
 49
6.3499999999999996
 74
0
 49
-3.1749999999999998
 74
0
  0
LTYPE
  5
36
100
AcDbSymbolTableRecord
100
AcDbLinetypeTableRecord
  2
DASHEDX2
 70
0
  3
Dashed (2x) ____  ____  ____  ____  ____  ___
 72
65
 73
2
 40
38.1000000000000014
 49
25.3999999999999986
 74
0
 49
-12.6999999999999993
 74
0
  0
LTYPE
  5
37
100
AcDbSymbolTableRecord
100
AcDbLinetypeTableRecord
  2
DASHDOT
 70
0
  3
Dash dot __ . __ . __ . __ . __ . __ . __ . __
 72
65
 73
4
 40
25.3999999999999986
 49
12.6999999999999993
 74
0
 49
-6.3499999999999996
 74
0
 49
0.0
 74
0
 49
-6.3499999999999996
 74
0
  0
LTYPE
  5
38
100
AcDbSymbolTableRecord
100
AcDbLinetypeTableRecord
  2
DASHDOT2
 70
0
  3
Dash dot (.5x) _._._._._._._._._._._._._._._.
 72
65
 73
4
 40
12.6999999999999993
 49
6.3499999999999996
 74
0
 49
-3.1749999999999998
 74
0
 49
0.0
 74
0
 49
-3.1749999999999998
 74
0
  0
LTYPE
  5
39
100
AcDbSymbolTableRecord
100
AcDbLinetypeTableRecord
  2
DASHDOTX2
 70
0
  3
Dash dot (2x) ____  .  ____  .  ____  .  ___
 72
65
 73
4
 40
50.7999999999999972
 49
25.3999999999999986
 74
0
 49
-12.6999999999999993
 74
0
 49
0.0
 74
0
 49
-12.6999999999999993
 74
0
  0
LTYPE
  5
3A
100
AcDbSymbolTableRecord
100
AcDbLinetypeTableRecord
  2
DIVIDE
 70
0
  3
Divide ____ . . ____ . . ____ . . ____ . . ____
 72
65
 73
6
 40
31.75
 49
12.6999999999999993
 74
0
 49
-6.3499999999999996
 74
0
 49
0.0
 74
0
 49
-6.3499999999999996
 74
0
 49
0.0
 74
0
 49
-6.3499999999999996
 74
0
  0
LTYPE
  5
3B
100
AcDbSymbolTableRecord
100
AcDbLinetypeTableRecord
  2
DIVIDE2
 70
0
  3
Divide (.5x) __..__..__..__..__..__..__..__.._
 72
65
 73
6
 40
15.875
 49
6.3499999999999996
 74
0
 49
-3.1749999999999998
 74
0
 49
0.0
 74
0
 49
-3.1749999999999998
 74
0
 49
0.0
 74
0
 49
-3.1749999999999998
 74
0
  0
LTYPE
  5
3C
100
AcDbSymbolTableRecord
100
AcDbLinetypeTableRecord
  2
DIVIDEX2
 70
0
  3
Divide (2x) ________  .  .  ________  .  .  _
 72
65
 73
6
 40
63.5
 49
25.3999999999999986
 74
0
 49
-12.6999999999999993
 74
0
 49
0.0
 74
0
 49
-12.6999999999999993
 74
0
 49
0.0
 74
0
 49
-12.6999999999999993
 74
0
  0
LTYPE
  5
3D
100
AcDbSymbolTableRecord
100
AcDbLinetypeTableRecord
  2
CENTER
 70
0
  3
Center ____ _ ____ _ ____ _ ____ _ ____ _ ____
 72
65
 73
4
 40
50.7999999999999972
 49
31.75
 74
0
 49
-6.3499999999999996
 74
0
 49
6.3499999999999996
 74
0
 49
-6.3499999999999996
 74
0
  0
LTYPE
  5
3E
100
AcDbSymbolTableRecord
100
AcDbLinetypeTableRecord
  2
CENTER2
 70
0
  3
Center (.5x) ___ _ ___ _ ___ _ ___ _ ___ _ ___
 72
65
 73
4
 40
28.5749999999999993
 49
19.0500000000000007
 74
0
 49
-3.1749999999999998
 74
0
 49
3.1749999999999998
 74
0
 49
-3.1749999999999998
 74
0
  0
LTYPE
  5
3F
100
AcDbSymbolTableRecord
100
AcDbLinetypeTableRecord
  2
CENTERX2
 70
0
  3
Center (2x) ________  __  ________  __  _____
 72
65
 73
4
 40
101.5999999999999943
 49
63.5
 74
0
 49
-12.6999999999999993
 74
0
 49
12.6999999999999993
 74
0
 49
-12.6999999999999993
 74
0
  0
LTYPE
  5
40
100
AcDbSymbolTableRecord
100
AcDbLinetypeTableRecord
  2
BORDER
 70
0
  3
Border __ __ . __ __ . __ __ . __ __ . __ __ .
 72
65
 73
6
 40
44.4500000000000028
 49
12.6999999999999993
 74
0
 49
-6.3499999999999996
 74
0
 49
12.6999999999999993
 74
0
 49
-6.3499999999999996
 74
0
 49
0.0
 74
0
 49
-6.3499999999999996
 74
0
  0
LTYPE
  5
41
100
AcDbSymbolTableRecord
100
AcDbLinetypeTableRecord
  2
BORDER2
 70
0
  3
Border (.5x) __.__.__.__.__.__.__.__.__.__.__.
 72
65
 73
6
 40
22.2250000000000014
 49
6.3499999999999996
 74
0
 49
-3.1749999999999998
 74
0
 49
6.3499999999999996
 74
0
 49
-3.1749999999999998
 74
0
 49
0.0
 74
0
 49
-3.1749999999999998
 74
0
  0
LTYPE
  5
42
100
AcDbSymbolTableRecord
100
AcDbLinetypeTableRecord
  2
BORDERX2
 70
0
  3
Border (2x) ____  ____  .  ____  ____  .  ___
 72
65
 73
6
 40
88.9000000000000057
 49
25.3999999999999986
 74
0
 49
-12.6999999999999993
 74
0
 49
25.3999999999999986
 74
0
 49
-12.6999999999999993
 74
0
 49
0.0
 74
0
 49
-12.6999999999999993
 74
0
  0
ENDTAB
  0
TABLE
  2
LAYER
  5
2
100
AcDbSymbolTable
 70
2
  0
LAYER
  5
10
100
AcDbSymbolTableRecord
100
AcDbLayerTableRecord
  2
0
 70
1
 62
7
  6
CONTINUOUS
290
1
370
-3
390
F
  0
LAYER
  5
43
100
AcDbSymbolTableRecord
100
AcDbLayerTableRecord
  2
Cut
 70
0
 62
5
  6
CONTINUOUS
290
1
370
-3
390
F
  0
ENDTAB
  0
TABLE
  2
STYLE
  5
3
100
AcDbSymbolTable
 70
1
  0
STYLE
  5
11
100
AcDbSymbolTableRecord
100
AcDbTextStyleTableRecord
  2
Standard
 70
0
 40
0.0
 41
0.75
 50
0.0
 71
0
 42
2.5
  3
txt
  4

  0
ENDTAB
  0
TABLE
  2
VIEW
  5
6
100
AcDbSymbolTable
 70
0
  0
ENDTAB
  0
TABLE
  2
UCS
  5
7
100
AcDbSymbolTable
 70
0
  0
ENDTAB
  0
TABLE
  2
APPID
  5
9
100
AcDbSymbolTable
 70
1
  0
APPID
  5
12
100
AcDbSymbolTableRecord
100
AcDbRegAppTableRecord
  2
ACAD
 70
0
  0
ENDTAB
  0
TABLE
  2
DIMSTYLE
  5
A
100
AcDbSymbolTable
 70
1
100
AcDbDimStyleTable
 71
0
  0
DIMSTYLE
105
27
100
AcDbSymbolTableRecord
100
AcDbDimStyleTableRecord
  2
Standard
 41
1.0
 42
0.0625
 43
3.75
 44
0.18
 70
0
 73
0
 74
0
 77
1
 78
8
140
30.0
141
2.5
143
0.03937007874016
147
5.0
171
3
172
1
271
2
272
2
274
3
278
44
283
0
284
8
340
11
  0
ENDTAB
  0
TABLE
  2
BLOCK_RECORD
  5
1
100
AcDbSymbolTable
 70
1
  0
BLOCK_RECORD
  5
1F
100
AcDbSymbolTableRecord
100
AcDbBlockTableRecord
  2
*Model_Space
340
22
  0
BLOCK_RECORD
  5
1B
100
AcDbSymbolTableRecord
100
AcDbBlockTableRecord
  2
*Paper_Space
340
1E
  0
BLOCK_RECORD
  5
23
100
AcDbSymbolTableRecord
100
AcDbBlockTableRecord
  2
*Paper_Space0
340
26
  0
BLOCK_RECORD
  5
44
100
AcDbSymbolTableRecord
100
AcDbBlockTableRecord
  2
_None
340
0
  0
BLOCK_RECORD
  5
45
100
AcDbSymbolTableRecord
100
AcDbBlockTableRecord
  2
BEM 100 ÜP
340
0
  0
BLOCK_RECORD
  5
46
100
AcDbSymbolTableRecord
100
AcDbBlockTableRecord
  2
BEM 100
340
0
  0
ENDTAB
  0
ENDSEC
  0
SECTION
  2
BLOCKS
  0
BLOCK
  5
20
100
AcDbEntity
  8
0
100
AcDbBlockBegin
  2
*Model_Space
 70
0
 10
0.0
 20
0.0
 30
0.0
  3
*Model_Space
  1

  0
ENDBLK
  5
21
100
AcDbEntity
  8
0
100
AcDbBlockEnd
  0
BLOCK
  5
1C
100
AcDbEntity
 67
1
  8
0
100
AcDbBlockBegin
  2
*Paper_Space
 70
0
 10
0.0
 20
0.0
 30
0.0
  3
*Paper_Space
  1

  0
ENDBLK
  5
1D
100
AcDbEntity
 67
1
  8
0
100
AcDbBlockEnd
  0
BLOCK
  5
24
100
AcDbEntity
  8
0
100
AcDbBlockBegin
  2
*Paper_Space0
 70
0
 10
0.0
 20
0.0
 30
0.0
  3
*Paper_Space0
  1

  0
ENDBLK
  5
25
100
AcDbEntity
  8
0
100
AcDbBlockEnd
  0
BLOCK
  5
47
100
AcDbEntity
  8
0
100
AcDbBlockBegin
  2
_None
 70
0
 10
0.0
 20
0.0
 30
0.0
  3
_None
  1

  0
ENDBLK
  5
48
100
AcDbEntity
  8
0
100
AcDbBlockEnd
  0
BLOCK
  5
49
100
AcDbEntity
  8
0
100
AcDbBlockBegin
  2
BEM 100 ÜP
 70
0
 10
0.0
 20
0.0
 30
0.0
  3
BEM 100 ÜP
  1

  0
ENDBLK
  5
4A
100
AcDbEntity
  8
0
100
AcDbBlockEnd
  0
BLOCK
  5
4B
100
AcDbEntity
  8
0
100
AcDbBlockBegin
  2
BEM 100
 70
0
 10
0.0
 20
0.0
 30
0.0
  3
BEM 100
  1

  0
ENDBLK
  5
4C
100
AcDbEntity
  8
0
100
AcDbBlockEnd
  0
ENDSEC
  0
SECTION
  2
ENTITIES
  0
LWPOLYLINE
  5
4D
  8
Cut
 62
256
370
-1
  6
ByLayer
100
AcDbEntity
100
AcDbPolyline
 90
4
 70
1
 10
1.098225072174045
 20
32.299472449551331
 10
4.0982250721740447
 20
32.299472449551331
 10
4.0982250721740447
 20
26.299472449551331
 10
1.098225072174045
 20
26.299472449551331
  0
LWPOLYLINE
  5
4E
  8
Cut
 62
256
370
-1
  6
ByLayer
100
AcDbEntity
100
AcDbPolyline
 90
4
 70
1
 10
1.098225072174045
 20
20.299472449551331
 10
4.0982250721740447
 20
20.299472449551331
 10
4.0982250721740447
 20
14.2994724495513292
 10
1.098225072174045
 20
14.2994724495513292
  0
LWPOLYLINE
  5
4F
  8
Cut
 62
256
370
-1
  6
ByLayer
100
AcDbEntity
100
AcDbPolyline
 90
4
 70
1
 10
1.098225072174045
 20
8.2994724495513346
 10
4.0982250721740447
 20
8.2994724495513346
 10
4.0982250721740447
 20
2.2994724495513341
 10
1.098225072174045
 20
2.2994724495513341
  0
LWPOLYLINE
  5
50
  8
Cut
 62
256
370
-1
  6
ByLayer
100
AcDbEntity
100
AcDbPolyline
 90
4
 70
1
 10
39.0982250721740527
 20
32.299472449551331
 10
36.0982250721740527
 20
32.299472449551331
 10
36.0982250721740527
 20
26.299472449551331
 10
39.0982250721740527
 20
26.299472449551331
  0
LWPOLYLINE
  5
51
  8
Cut
 62
256
370
-1
  6
ByLayer
100
AcDbEntity
100
AcDbPolyline
 90
4
 70
1
 10
39.0982250721740527
 20
20.299472449551331
 10
36.0982250721740527
 20
20.299472449551331
 10
36.0982250721740527
 20
14.2994724495513292
 10
39.0982250721740527
 20
14.2994724495513292
  0
LWPOLYLINE
  5
52
  8
Cut
 62
256
370
-1
  6
ByLayer
100
AcDbEntity
100
AcDbPolyline
 90
4
 70
1
 10
39.0982250721740527
 20
8.2994724495513346
 10
36.0982250721740527
 20
8.2994724495513346
 10
36.0982250721740527
 20
2.2994724495513341
 10
39.0982250721740527
 20
2.2994724495513341
  0
CIRCLE
  5
53
100
AcDbEntity
100
AcDbCircle
  8
Cut
 62
256
370
-1
  6
ByLayer
 10
20.0982250721740456
 20
14.299472449551331
 30
0.0
 40
1.0
  0
CIRCLE
  5
54
100
AcDbEntity
100
AcDbCircle
  8
Cut
 62
256
370
-1
  6
ByLayer
 10
20.0982250721740421
 20
20.299472449551331
 30
0.0
 40
1.0
  0
LINE
  5
55
100
AcDbEntity
100
AcDbLine
  8
Cut
 62
256
370
-1
  6
ByLayer
 10
0.0982250721740456
 20
0.299472449551331
 30
0.0
 11
40.0982250721740385
 21
0.299472449551331
 31
0.0
  0
ARC
  5
56
100
AcDbEntity
  8
Cut
 62
256
370
-1
  6
ByLayer
100
AcDbCircle
 10
0.0982250721740455
 20
1.299472449551331
 30
0.0
 40
1.0
100
AcDbArc
 50
180.0
 51
270.0
  0
ARC
  5
57
100
AcDbEntity
  8
Cut
 62
256
370
-1
  6
ByLayer
100
AcDbCircle
 10
40.0982250721740385
 20
1.299472449551331
 30
0.0
 40
1.0
100
AcDbArc
 50
270.0
 51
0.0
  0
LINE
  5
58
100
AcDbEntity
100
AcDbLine
  8
Cut
 62
256
370
-1
  6
ByLayer
 10
41.0982250721740385
 20
1.299472449551331
 30
0.0
 11
41.0982250721740385
 21
33.299472449551331
 31
0.0
  0
ARC
  5
59
100
AcDbEntity
  8
Cut
 62
256
370
-1
  6
ByLayer
100
AcDbCircle
 10
40.0982250721740385
 20
33.299472449551331
 30
0.0
 40
1.0
100
AcDbArc
 50
0.0
 51
90.0
  0
LINE
  5
5A
100
AcDbEntity
100
AcDbLine
  8
Cut
 62
256
370
-1
  6
ByLayer
 10
40.0982250721740385
 20
34.299472449551331
 30
0.0
 11
0.0982250721740456
 21
34.299472449551331
 31
0.0
  0
ARC
  5
5B
100
AcDbEntity
  8
Cut
 62
256
370
-1
  6
ByLayer
100
AcDbCircle
 10
0.0982250721740457
 20
33.299472449551331
 30
0.0
 40
1.0
100
AcDbArc
 50
90.0
 51
180.0
  0
LINE
  5
5C
100
AcDbEntity
100
AcDbLine
  8
Cut
 62
256
370
-1
  6
ByLayer
 10
-0.9017749278259543
 20
33.299472449551331
 30
0.0
 11
-0.9017749278259543
 21
1.299472449551331
 31
0.0
  0
LWPOLYLINE
  5
5D
  8
Cut
 62
256
370
-1
  6
ByLayer
100
AcDbEntity
100
AcDbPolyline
 90
4
 70
1
 10
43.0982250721740385
 20
32.299472449551331
 10
46.0982250721740385
 20
32.299472449551331
 10
46.0982250721740385
 20
26.299472449551331
 10
43.0982250721740385
 20
26.299472449551331
  0
LWPOLYLINE
  5
5E
  8
Cut
 62
256
370
-1
  6
ByLayer
100
AcDbEntity
100
AcDbPolyline
 90
4
 70
1
 10
43.0982250721740385
 20
20.299472449551331
 10
46.0982250721740385
 20
20.299472449551331
 10
46.0982250721740385
 20
14.2994724495513292
 10
43.0982250721740385
 20
14.2994724495513292
  0
LWPOLYLINE
  5
5F
  8
Cut
 62
256
370
-1
  6
ByLayer
100
AcDbEntity
100
AcDbPolyline
 90
4
 70
1
 10
43.0982250721740385
 20
8.2994724495513346
 10
46.0982250721740385
 20
8.2994724495513346
 10
46.0982250721740385
 20
2.2994724495513341
 10
43.0982250721740385
 20
2.2994724495513341
  0
LWPOLYLINE
  5
60
  8
Cut
 62
256
370
-1
  6
ByLayer
100
AcDbEntity
100
AcDbPolyline
 90
4
 70
1
 10
81.0982250721740456
 20
32.299472449551331
 10
78.0982250721740456
 20
32.299472449551331
 10
78.0982250721740456
 20
26.299472449551331
 10
81.0982250721740456
 20
26.299472449551331
  0
LWPOLYLINE
  5
61
  8
Cut
 62
256
370
-1
  6
ByLayer
100
AcDbEntity
100
AcDbPolyline
 90
4
 70
1
 10
81.0982250721740456
 20
20.299472449551331
 10
78.0982250721740456
 20
20.299472449551331
 10
78.0982250721740456
 20
14.2994724495513292
 10
81.0982250721740456
 20
14.2994724495513292
  0
LWPOLYLINE
  5
62
  8
Cut
 62
256
370
-1
  6
ByLayer
100
AcDbEntity
100
AcDbPolyline
 90
4
 70
1
 10
81.0982250721740456
 20
8.2994724495513346
 10
78.0982250721740456
 20
8.2994724495513346
 10
78.0982250721740456
 20
2.2994724495513341
 10
81.0982250721740456
 20
2.2994724495513341
  0
CIRCLE
  5
63
100
AcDbEntity
100
AcDbCircle
  8
Cut
 62
256
370
-1
  6
ByLayer
 10
62.0982250721740385
 20
14.299472449551331
 30
0.0
 40
1.0
  0
CIRCLE
  5
64
100
AcDbEntity
100
AcDbCircle
  8
Cut
 62
256
370
-1
  6
ByLayer
 10
62.0982250721740314
 20
20.299472449551331
 30
0.0
 40
1.0
  0
LINE
  5
65
100
AcDbEntity
100
AcDbLine
  8
Cut
 62
256
370
-1
  6
ByLayer
 10
42.0982250721740385
 20
0.299472449551331
 30
0.0
 11
82.0982250721740314
 21
0.299472449551331
 31
0.0
  0
ARC
  5
66
100
AcDbEntity
  8
Cut
 62
256
370
-1
  6
ByLayer
100
AcDbCircle
 10
42.0982250721740385
 20
1.299472449551331
 30
0.0
 40
1.0
100
AcDbArc
 50
180.0
 51
270.0
  0
ARC
  5
67
100
AcDbEntity
  8
Cut
 62
256
370
-1
  6
ByLayer
100
AcDbCircle
 10
82.0982250721740314
 20
1.299472449551331
 30
0.0
 40
1.0
100
AcDbArc
 50
270.0
 51
0.0
  0
LINE
  5
68
100
AcDbEntity
100
AcDbLine
  8
Cut
 62
256
370
-1
  6
ByLayer
 10
83.0982250721740314
 20
1.299472449551331
 30
0.0
 11
83.0982250721740314
 21
33.299472449551331
 31
0.0
  0
ARC
  5
69
100
AcDbEntity
  8
Cut
 62
256
370
-1
  6
ByLayer
100
AcDbCircle
 10
82.0982250721740314
 20
33.299472449551331
 30
0.0
 40
1.0
100
AcDbArc
 50
0.0
 51
90.0
  0
LINE
  5
6A
100
AcDbEntity
100
AcDbLine
  8
Cut
 62
256
370
-1
  6
ByLayer
 10
82.0982250721740314
 20
34.299472449551331
 30
0.0
 11
42.0982250721740385
 21
34.299472449551331
 31
0.0
  0
ARC
  5
6B
100
AcDbEntity
  8
Cut
 62
256
370
-1
  6
ByLayer
100
AcDbCircle
 10
42.0982250721740385
 20
33.299472449551331
 30
0.0
 40
1.0
100
AcDbArc
 50
90.0
 51
180.0
  0
LWPOLYLINE
  5
6C
  8
Cut
 62
256
370
-1
  6
ByLayer
100
AcDbEntity
100
AcDbPolyline
 90
4
 70
1
 10
85.0982250721740314
 20
32.299472449551331
 10
88.0982250721740314
 20
32.299472449551331
 10
88.0982250721740314
 20
26.299472449551331
 10
85.0982250721740314
 20
26.299472449551331
  0
LWPOLYLINE
  5
6D
  8
Cut
 62
256
370
-1
  6
ByLayer
100
AcDbEntity
100
AcDbPolyline
 90
4
 70
1
 10
85.0982250721740314
 20
20.299472449551331
 10
88.0982250721740314
 20
20.299472449551331
 10
88.0982250721740314
 20
14.2994724495513292
 10
85.0982250721740314
 20
14.2994724495513292
  0
LWPOLYLINE
  5
6E
  8
Cut
 62
256
370
-1
  6
ByLayer
100
AcDbEntity
100
AcDbPolyline
 90
4
 70
1
 10
85.0982250721740314
 20
8.2994724495513346
 10
88.0982250721740314
 20
8.2994724495513346
 10
88.0982250721740314
 20
2.2994724495513341
 10
85.0982250721740314
 20
2.2994724495513341
  0
LWPOLYLINE
  5
6F
  8
Cut
 62
256
370
-1
  6
ByLayer
100
AcDbEntity
100
AcDbPolyline
 90
4
 70
1
 10
123.0982250721740456
 20
32.299472449551331
 10
120.0982250721740456
 20
32.299472449551331
 10
120.0982250721740456
 20
26.299472449551331
 10
123.0982250721740456
 20
26.299472449551331
  0
LWPOLYLINE
  5
70
  8
Cut
 62
256
370
-1
  6
ByLayer
100
AcDbEntity
100
AcDbPolyline
 90
4
 70
1
 10
123.0982250721740456
 20
20.299472449551331
 10
120.0982250721740456
 20
20.299472449551331
 10
120.0982250721740456
 20
14.2994724495513292
 10
123.0982250721740456
 20
14.2994724495513292
  0
LWPOLYLINE
  5
71
  8
Cut
 62
256
370
-1
  6
ByLayer
100
AcDbEntity
100
AcDbPolyline
 90
4
 70
1
 10
123.0982250721740456
 20
8.2994724495513346
 10
120.0982250721740456
 20
8.2994724495513346
 10
120.0982250721740456
 20
2.2994724495513341
 10
123.0982250721740456
 20
2.2994724495513341
  0
CIRCLE
  5
72
100
AcDbEntity
100
AcDbCircle
  8
Cut
 62
256
370
-1
  6
ByLayer
 10
104.0982250721740314
 20
14.299472449551331
 30
0.0
 40
1.0
  0
CIRCLE
  5
73
100
AcDbEntity
100
AcDbCircle
  8
Cut
 62
256
370
-1
  6
ByLayer
 10
104.0982250721740314
 20
20.299472449551331
 30
0.0
 40
1.0
  0
LINE
  5
74
100
AcDbEntity
100
AcDbLine
  8
Cut
 62
256
370
-1
  6
ByLayer
 10
84.0982250721740314
 20
0.299472449551331
 30
0.0
 11
124.0982250721740172
 21
0.299472449551331
 31
0.0
  0
ARC
  5
75
100
AcDbEntity
  8
Cut
 62
256
370
-1
  6
ByLayer
100
AcDbCircle
 10
84.0982250721740314
 20
1.299472449551331
 30
0.0
 40
1.0
100
AcDbArc
 50
180.0
 51
270.0
  0
ARC
  5
76
100
AcDbEntity
  8
Cut
 62
256
370
-1
  6
ByLayer
100
AcDbCircle
 10
124.0982250721740172
 20
1.299472449551331
 30
0.0
 40
1.0
100
AcDbArc
 50
270.0
 51
0.0
  0
LINE
  5
77
100
AcDbEntity
100
AcDbLine
  8
Cut
 62
256
370
-1
  6
ByLayer
 10
125.0982250721740172
 20
1.299472449551331
 30
0.0
 11
125.0982250721740172
 21
33.299472449551331
 31
0.0
  0
ARC
  5
78
100
AcDbEntity
  8
Cut
 62
256
370
-1
  6
ByLayer
100
AcDbCircle
 10
124.0982250721740172
 20
33.299472449551331
 30
0.0
 40
1.0
100
AcDbArc
 50
0.0
 51
90.0
  0
LINE
  5
79
100
AcDbEntity
100
AcDbLine
  8
Cut
 62
256
370
-1
  6
ByLayer
 10
124.0982250721740172
 20
34.299472449551331
 30
0.0
 11
84.0982250721740314
 21
34.299472449551331
 31
0.0
  0
ARC
  5
7A
100
AcDbEntity
  8
Cut
 62
256
370
-1
  6
ByLayer
100
AcDbCircle
 10
84.0982250721740314
 20
33.299472449551331
 30
0.0
 40
1.0
100
AcDbArc
 50
90.0
 51
180.0
  0
LWPOLYLINE
  5
7B
  8
Cut
 62
256
370
-1
  6
ByLayer
100
AcDbEntity
100
AcDbPolyline
 90
4
 70
1
 10
127.0982250721740172
 20
32.299472449551331
 10
130.0982250721740172
 20
32.299472449551331
 10
130.0982250721740172
 20
26.299472449551331
 10
127.0982250721740172
 20
26.299472449551331
  0
LWPOLYLINE
  5
7C
  8
Cut
 62
256
370
-1
  6
ByLayer
100
AcDbEntity
100
AcDbPolyline
 90
4
 70
1
 10
127.0982250721740172
 20
20.299472449551331
 10
130.0982250721740172
 20
20.299472449551331
 10
130.0982250721740172
 20
14.2994724495513292
 10
127.0982250721740172
 20
14.2994724495513292
  0
LWPOLYLINE
  5
7D
  8
Cut
 62
256
370
-1
  6
ByLayer
100
AcDbEntity
100
AcDbPolyline
 90
4
 70
1
 10
127.0982250721740172
 20
8.2994724495513346
 10
130.0982250721740172
 20
8.2994724495513346
 10
130.0982250721740172
 20
2.2994724495513341
 10
127.0982250721740172
 20
2.2994724495513341
  0
LWPOLYLINE
  5
7E
  8
Cut
 62
256
370
-1
  6
ByLayer
100
AcDbEntity
100
AcDbPolyline
 90
4
 70
1
 10
165.0982250721740172
 20
32.299472449551331
 10
162.0982250721740172
 20
32.299472449551331
 10
162.0982250721740172
 20
26.299472449551331
 10
165.0982250721740172
 20
26.299472449551331
  0
LWPOLYLINE
  5
7F
  8
Cut
 62
256
370
-1
  6
ByLayer
100
AcDbEntity
100
AcDbPolyline
 90
4
 70
1
 10
165.0982250721740172
 20
20.299472449551331
 10
162.0982250721740172
 20
20.299472449551331
 10
162.0982250721740172
 20
14.2994724495513292
 10
165.0982250721740172
 20
14.2994724495513292
  0
LWPOLYLINE
  5
80
  8
Cut
 62
256
370
-1
  6
ByLayer
100
AcDbEntity
100
AcDbPolyline
 90
4
 70
1
 10
165.0982250721740172
 20
8.2994724495513346
 10
162.0982250721740172
 20
8.2994724495513346
 10
162.0982250721740172
 20
2.2994724495513341
 10
165.0982250721740172
 20
2.2994724495513341
  0
CIRCLE
  5
81
100
AcDbEntity
100
AcDbCircle
  8
Cut
 62
256
370
-1
  6
ByLayer
 10
146.0982250721740172
 20
14.299472449551331
 30
0.0
 40
1.0
  0
CIRCLE
  5
82
100
AcDbEntity
100
AcDbCircle
  8
Cut
 62
256
370
-1
  6
ByLayer
 10
146.0982250721740172
 20
20.299472449551331
 30
0.0
 40
1.0
  0
LINE
  5
83
100
AcDbEntity
100
AcDbLine
  8
Cut
 62
256
370
-1
  6
ByLayer
 10
126.0982250721740172
 20
0.299472449551331
 30
0.0
 11
166.0982250721740172
 21
0.299472449551331
 31
0.0
  0
ARC
  5
84
100
AcDbEntity
  8
Cut
 62
256
370
-1
  6
ByLayer
100
AcDbCircle
 10
126.0982250721740172
 20
1.299472449551331
 30
0.0
 40
1.0
100
AcDbArc
 50
180.0
 51
270.0
  0
ARC
  5
85
100
AcDbEntity
  8
Cut
 62
256
370
-1
  6
ByLayer
100
AcDbCircle
 10
166.0982250721740172
 20
1.299472449551331
 30
0.0
 40
1.0
100
AcDbArc
 50
270.0
 51
0.0
  0
LINE
  5
86
100
AcDbEntity
100
AcDbLine
  8
Cut
 62
256
370
-1
  6
ByLayer
 10
167.0982250721740172
 20
1.299472449551331
 30
0.0
 11
167.0982250721740172
 21
33.299472449551331
 31
0.0
  0
ARC
  5
87
100
AcDbEntity
  8
Cut
 62
256
370
-1
  6
ByLayer
100
AcDbCircle
 10
166.0982250721740172
 20
33.299472449551331
 30
0.0
 40
1.0
100
AcDbArc
 50
0.0
 51
90.0
  0
LINE
  5
88
100
AcDbEntity
100
AcDbLine
  8
Cut
 62
256
370
-1
  6
ByLayer
 10
166.0982250721740172
 20
34.299472449551331
 30
0.0
 11
126.0982250721740172
 21
34.299472449551331
 31
0.0
  0
ARC
  5
89
100
AcDbEntity
  8
Cut
 62
256
370
-1
  6
ByLayer
100
AcDbCircle
 10
126.0982250721740172
 20
33.299472449551331
 30
0.0
 40
1.0
100
AcDbArc
 50
90.0
 51
180.0
  0
LWPOLYLINE
  5
8A
  8
Cut
 62
256
370
-1
  6
ByLayer
100
AcDbEntity
100
AcDbPolyline
 90
4
 70
1
 10
1.098225072174045
 20
-1.700527550448669
 10
4.0982250721740447
 20
-1.700527550448669
 10
4.0982250721740447
 20
-7.700527550448669
 10
1.098225072174045
 20
-7.700527550448669
  0
LWPOLYLINE
  5
8B
  8
Cut
 62
256
370
-1
  6
ByLayer
100
AcDbEntity
100
AcDbPolyline
 90
4
 70
1
 10
1.098225072174045
 20
-13.700527550448669
 10
4.0982250721740447
 20
-13.700527550448669
 10
4.0982250721740447
 20
-19.700527550448669
 10
1.098225072174045
 20
-19.700527550448669
  0
LWPOLYLINE
  5
8C
  8
Cut
 62
256
370
-1
  6
ByLayer
100
AcDbEntity
100
AcDbPolyline
 90
4
 70
1
 10
1.098225072174045
 20
-25.7005275504486654
 10
4.0982250721740447
 20
-25.7005275504486654
 10
4.0982250721740447
 20
-31.7005275504486654
 10
1.098225072174045
 20
-31.7005275504486654
  0
LWPOLYLINE
  5
8D
  8
Cut
 62
256
370
-1
  6
ByLayer
100
AcDbEntity
100
AcDbPolyline
 90
4
 70
1
 10
39.0982250721740527
 20
-1.700527550448669
 10
36.0982250721740527
 20
-1.700527550448669
 10
36.0982250721740527
 20
-7.700527550448669
 10
39.0982250721740527
 20
-7.700527550448669
  0
LWPOLYLINE
  5
8E
  8
Cut
 62
256
370
-1
  6
ByLayer
100
AcDbEntity
100
AcDbPolyline
 90
4
 70
1
 10
39.0982250721740527
 20
-13.700527550448669
 10
36.0982250721740527
 20
-13.700527550448669
 10
36.0982250721740527
 20
-19.700527550448669
 10
39.0982250721740527
 20
-19.700527550448669
  0
LWPOLYLINE
  5
8F
  8
Cut
 62
256
370
-1
  6
ByLayer
100
AcDbEntity
100
AcDbPolyline
 90
4
 70
1
 10
39.0982250721740527
 20
-25.7005275504486654
 10
36.0982250721740527
 20
-25.7005275504486654
 10
36.0982250721740527
 20
-31.7005275504486654
 10
39.0982250721740527
 20
-31.7005275504486654
  0
CIRCLE
  5
90
100
AcDbEntity
100
AcDbCircle
  8
Cut
 62
256
370
-1
  6
ByLayer
 10
20.0982250721740456
 20
-19.700527550448669
 30
0.0
 40
1.0
  0
CIRCLE
  5
91
100
AcDbEntity
100
AcDbCircle
  8
Cut
 62
256
370
-1
  6
ByLayer
 10
20.0982250721740421
 20
-13.700527550448669
 30
0.0
 40
1.0
  0
LINE
  5
92
100
AcDbEntity
100
AcDbLine
  8
Cut
 62
256
370
-1
  6
ByLayer
 10
0.0982250721740456
 20
-33.700527550448669
 30
0.0
 11
40.0982250721740385
 21
-33.700527550448669
 31
0.0
  0
ARC
  5
93
100
AcDbEntity
  8
Cut
 62
256
370
-1
  6
ByLayer
100
AcDbCircle
 10
0.0982250721740455
 20
-32.700527550448669
 30
0.0
 40
1.0
100
AcDbArc
 50
180.0
 51
270.0
  0
ARC
  5
94
100
AcDbEntity
  8
Cut
 62
256
370
-1
  6
ByLayer
100
AcDbCircle
 10
40.0982250721740385
 20
-32.700527550448669
 30
0.0
 40
1.0
100
AcDbArc
 50
270.0
 51
0.0
  0
LINE
  5
95
100
AcDbEntity
100
AcDbLine
  8
Cut
 62
256
370
-1
  6
ByLayer
 10
41.0982250721740385
 20
-32.700527550448669
 30
0.0
 11
41.0982250721740385
 21
-0.700527550448669
 31
0.0
  0
ARC
  5
96
100
AcDbEntity
  8
Cut
 62
256
370
-1
  6
ByLayer
100
AcDbCircle
 10
40.0982250721740385
 20
-0.700527550448669
 30
0.0
 40
1.0
100
AcDbArc
 50
0.0
 51
90.0
  0
ARC
  5
97
100
AcDbEntity
  8
Cut
 62
256
370
-1
  6
ByLayer
100
AcDbCircle
 10
0.0982250721740457
 20
-0.700527550448669
 30
0.0
 40
1.0
100
AcDbArc
 50
90.0
 51
180.0
  0
LINE
  5
98
100
AcDbEntity
100
AcDbLine
  8
Cut
 62
256
370
-1
  6
ByLayer
 10
-0.9017749278259543
 20
-0.700527550448669
 30
0.0
 11
-0.9017749278259543
 21
-32.700527550448669
 31
0.0
  0
LWPOLYLINE
  5
99
  8
Cut
 62
256
370
-1
  6
ByLayer
100
AcDbEntity
100
AcDbPolyline
 90
4
 70
1
 10
43.0982250721740385
 20
-1.700527550448669
 10
46.0982250721740385
 20
-1.700527550448669
 10
46.0982250721740385
 20
-7.700527550448669
 10
43.0982250721740385
 20
-7.700527550448669
  0
LWPOLYLINE
  5
9A
  8
Cut
 62
256
370
-1
  6
ByLayer
100
AcDbEntity
100
AcDbPolyline
 90
4
 70
1
 10
43.0982250721740385
 20
-13.700527550448669
 10
46.0982250721740385
 20
-13.700527550448669
 10
46.0982250721740385
 20
-19.700527550448669
 10
43.0982250721740385
 20
-19.700527550448669
  0
LWPOLYLINE
  5
9B
  8
Cut
 62
256
370
-1
  6
ByLayer
100
AcDbEntity
100
AcDbPolyline
 90
4
 70
1
 10
43.0982250721740385
 20
-25.7005275504486654
 10
46.0982250721740385
 20
-25.7005275504486654
 10
46.0982250721740385
 20
-31.7005275504486654
 10
43.0982250721740385
 20
-31.7005275504486654
  0
LWPOLYLINE
  5
9C
  8
Cut
 62
256
370
-1
  6
ByLayer
100
AcDbEntity
100
AcDbPolyline
 90
4
 70
1
 10
81.0982250721740456
 20
-1.700527550448669
 10
78.0982250721740456
 20
-1.700527550448669
 10
78.0982250721740456
 20
-7.700527550448669
 10
81.0982250721740456
 20
-7.700527550448669
  0
LWPOLYLINE
  5
9D
  8
Cut
 62
256
370
-1
  6
ByLayer
100
AcDbEntity
100
AcDbPolyline
 90
4
 70
1
 10
81.0982250721740456
 20
-13.700527550448669
 10
78.0982250721740456
 20
-13.700527550448669
 10
78.0982250721740456
 20
-19.700527550448669
 10
81.0982250721740456
 20
-19.700527550448669
  0
LWPOLYLINE
  5
9E
  8
Cut
 62
256
370
-1
  6
ByLayer
100
AcDbEntity
100
AcDbPolyline
 90
4
 70
1
 10
81.0982250721740456
 20
-25.7005275504486654
 10
78.0982250721740456
 20
-25.7005275504486654
 10
78.0982250721740456
 20
-31.7005275504486654
 10
81.0982250721740456
 20
-31.7005275504486654
  0
CIRCLE
  5
9F
100
AcDbEntity
100
AcDbCircle
  8
Cut
 62
256
370
-1
  6
ByLayer
 10
62.0982250721740385
 20
-19.700527550448669
 30
0.0
 40
1.0
  0
CIRCLE
  5
A0
100
AcDbEntity
100
AcDbCircle
  8
Cut
 62
256
370
-1
  6
ByLayer
 10
62.0982250721740314
 20
-13.700527550448669
 30
0.0
 40
1.0
  0
LINE
  5
A1
100
AcDbEntity
100
AcDbLine
  8
Cut
 62
256
370
-1
  6
ByLayer
 10
42.0982250721740385
 20
-33.700527550448669
 30
0.0
 11
82.0982250721740314
 21
-33.700527550448669
 31
0.0
  0
ARC
  5
A2
100
AcDbEntity
  8
Cut
 62
256
370
-1
  6
ByLayer
100
AcDbCircle
 10
42.0982250721740385
 20
-32.700527550448669
 30
0.0
 40
1.0
100
AcDbArc
 50
180.0
 51
270.0
  0
ARC
  5
A3
100
AcDbEntity
  8
Cut
 62
256
370
-1
  6
ByLayer
100
AcDbCircle
 10
82.0982250721740314
 20
-32.700527550448669
 30
0.0
 40
1.0
100
AcDbArc
 50
270.0
 51
0.0
  0
LINE
  5
A4
100
AcDbEntity
100
AcDbLine
  8
Cut
 62
256
370
-1
  6
ByLayer
 10
83.0982250721740314
 20
-32.700527550448669
 30
0.0
 11
83.0982250721740314
 21
-0.700527550448669
 31
0.0
  0
ARC
  5
A5
100
AcDbEntity
  8
Cut
 62
256
370
-1
  6
ByLayer
100
AcDbCircle
 10
82.0982250721740314
 20
-0.700527550448669
 30
0.0
 40
1.0
100
AcDbArc
 50
0.0
 51
90.0
  0
ARC
  5
A6
100
AcDbEntity
  8
Cut
 62
256
370
-1
  6
ByLayer
100
AcDbCircle
 10
42.0982250721740385
 20
-0.700527550448669
 30
0.0
 40
1.0
100
AcDbArc
 50
90.0
 51
180.0
  0
LWPOLYLINE
  5
A7
  8
Cut
 62
256
370
-1
  6
ByLayer
100
AcDbEntity
100
AcDbPolyline
 90
4
 70
1
 10
85.0982250721740314
 20
-1.700527550448669
 10
88.0982250721740314
 20
-1.700527550448669
 10
88.0982250721740314
 20
-7.700527550448669
 10
85.0982250721740314
 20
-7.700527550448669
  0
LWPOLYLINE
  5
A8
  8
Cut
 62
256
370
-1
  6
ByLayer
100
AcDbEntity
100
AcDbPolyline
 90
4
 70
1
 10
85.0982250721740314
 20
-13.700527550448669
 10
88.0982250721740314
 20
-13.700527550448669
 10
88.0982250721740314
 20
-19.700527550448669
 10
85.0982250721740314
 20
-19.700527550448669
  0
LWPOLYLINE
  5
A9
  8
Cut
 62
256
370
-1
  6
ByLayer
100
AcDbEntity
100
AcDbPolyline
 90
4
 70
1
 10
85.0982250721740314
 20
-25.7005275504486654
 10
88.0982250721740314
 20
-25.7005275504486654
 10
88.0982250721740314
 20
-31.7005275504486654
 10
85.0982250721740314
 20
-31.7005275504486654
  0
LWPOLYLINE
  5
AA
  8
Cut
 62
256
370
-1
  6
ByLayer
100
AcDbEntity
100
AcDbPolyline
 90
4
 70
1
 10
123.0982250721740456
 20
-1.700527550448669
 10
120.0982250721740456
 20
-1.700527550448669
 10
120.0982250721740456
 20
-7.700527550448669
 10
123.0982250721740456
 20
-7.700527550448669
  0
LWPOLYLINE
  5
AB
  8
Cut
 62
256
370
-1
  6
ByLayer
100
AcDbEntity
100
AcDbPolyline
 90
4
 70
1
 10
123.0982250721740456
 20
-13.700527550448669
 10
120.0982250721740456
 20
-13.700527550448669
 10
120.0982250721740456
 20
-19.700527550448669
 10
123.0982250721740456
 20
-19.700527550448669
  0
LWPOLYLINE
  5
AC
  8
Cut
 62
256
370
-1
  6
ByLayer
100
AcDbEntity
100
AcDbPolyline
 90
4
 70
1
 10
123.0982250721740456
 20
-25.7005275504486654
 10
120.0982250721740456
 20
-25.7005275504486654
 10
120.0982250721740456
 20
-31.7005275504486654
 10
123.0982250721740456
 20
-31.7005275504486654
  0
CIRCLE
  5
AD
100
AcDbEntity
100
AcDbCircle
  8
Cut
 62
256
370
-1
  6
ByLayer
 10
104.0982250721740314
 20
-19.700527550448669
 30
0.0
 40
1.0
  0
CIRCLE
  5
AE
100
AcDbEntity
100
AcDbCircle
  8
Cut
 62
256
370
-1
  6
ByLayer
 10
104.0982250721740314
 20
-13.700527550448669
 30
0.0
 40
1.0
  0
LINE
  5
AF
100
AcDbEntity
100
AcDbLine
  8
Cut
 62
256
370
-1
  6
ByLayer
 10
84.0982250721740314
 20
-33.700527550448669
 30
0.0
 11
124.0982250721740172
 21
-33.700527550448669
 31
0.0
  0
ARC
  5
B0
100
AcDbEntity
  8
Cut
 62
256
370
-1
  6
ByLayer
100
AcDbCircle
 10
84.0982250721740314
 20
-32.700527550448669
 30
0.0
 40
1.0
100
AcDbArc
 50
180.0
 51
270.0
  0
ARC
  5
B1
100
AcDbEntity
  8
Cut
 62
256
370
-1
  6
ByLayer
100
AcDbCircle
 10
124.0982250721740172
 20
-32.700527550448669
 30
0.0
 40
1.0
100
AcDbArc
 50
270.0
 51
0.0
  0
LINE
  5
B2
100
AcDbEntity
100
AcDbLine
  8
Cut
 62
256
370
-1
  6
ByLayer
 10
125.0982250721740172
 20
-32.700527550448669
 30
0.0
 11
125.0982250721740172
 21
-0.700527550448669
 31
0.0
  0
ARC
  5
B3
100
AcDbEntity
  8
Cut
 62
256
370
-1
  6
ByLayer
100
AcDbCircle
 10
124.0982250721740172
 20
-0.700527550448669
 30
0.0
 40
1.0
100
AcDbArc
 50
0.0
 51
90.0
  0
ARC
  5
B4
100
AcDbEntity
  8
Cut
 62
256
370
-1
  6
ByLayer
100
AcDbCircle
 10
84.0982250721740314
 20
-0.700527550448669
 30
0.0
 40
1.0
100
AcDbArc
 50
90.0
 51
180.0
  0
LWPOLYLINE
  5
B5
  8
Cut
 62
256
370
-1
  6
ByLayer
100
AcDbEntity
100
AcDbPolyline
 90
4
 70
1
 10
127.0982250721740172
 20
-1.700527550448669
 10
130.0982250721740172
 20
-1.700527550448669
 10
130.0982250721740172
 20
-7.700527550448669
 10
127.0982250721740172
 20
-7.700527550448669
  0
LWPOLYLINE
  5
B6
  8
Cut
 62
256
370
-1
  6
ByLayer
100
AcDbEntity
100
AcDbPolyline
 90
4
 70
1
 10
127.0982250721740172
 20
-13.700527550448669
 10
130.0982250721740172
 20
-13.700527550448669
 10
130.0982250721740172
 20
-19.700527550448669
 10
127.0982250721740172
 20
-19.700527550448669
  0
LWPOLYLINE
  5
B7
  8
Cut
 62
256
370
-1
  6
ByLayer
100
AcDbEntity
100
AcDbPolyline
 90
4
 70
1
 10
127.0982250721740172
 20
-25.7005275504486654
 10
130.0982250721740172
 20
-25.7005275504486654
 10
130.0982250721740172
 20
-31.7005275504486654
 10
127.0982250721740172
 20
-31.7005275504486654
  0
LWPOLYLINE
  5
B8
  8
Cut
 62
256
370
-1
  6
ByLayer
100
AcDbEntity
100
AcDbPolyline
 90
4
 70
1
 10
165.0982250721740172
 20
-1.700527550448669
 10
162.0982250721740172
 20
-1.700527550448669
 10
162.0982250721740172
 20
-7.700527550448669
 10
165.0982250721740172
 20
-7.700527550448669
  0
LWPOLYLINE
  5
B9
  8
Cut
 62
256
370
-1
  6
ByLayer
100
AcDbEntity
100
AcDbPolyline
 90
4
 70
1
 10
165.0982250721740172
 20
-13.700527550448669
 10
162.0982250721740172
 20
-13.700527550448669
 10
162.0982250721740172
 20
-19.700527550448669
 10
165.0982250721740172
 20
-19.700527550448669
  0
LWPOLYLINE
  5
BA
  8
Cut
 62
256
370
-1
  6
ByLayer
100
AcDbEntity
100
AcDbPolyline
 90
4
 70
1
 10
165.0982250721740172
 20
-25.7005275504486654
 10
162.0982250721740172
 20
-25.7005275504486654
 10
162.0982250721740172
 20
-31.7005275504486654
 10
165.0982250721740172
 20
-31.7005275504486654
  0
CIRCLE
  5
BB
100
AcDbEntity
100
AcDbCircle
  8
Cut
 62
256
370
-1
  6
ByLayer
 10
146.0982250721740172
 20
-19.700527550448669
 30
0.0
 40
1.0
  0
CIRCLE
  5
BC
100
AcDbEntity
100
AcDbCircle
  8
Cut
 62
256
370
-1
  6
ByLayer
 10
146.0982250721740172
 20
-13.700527550448669
 30
0.0
 40
1.0
  0
LINE
  5
BD
100
AcDbEntity
100
AcDbLine
  8
Cut
 62
256
370
-1
  6
ByLayer
 10
126.0982250721740172
 20
-33.700527550448669
 30
0.0
 11
166.0982250721740172
 21
-33.700527550448669
 31
0.0
  0
ARC
  5
BE
100
AcDbEntity
  8
Cut
 62
256
370
-1
  6
ByLayer
100
AcDbCircle
 10
126.0982250721740172
 20
-32.700527550448669
 30
0.0
 40
1.0
100
AcDbArc
 50
180.0
 51
270.0
  0
ARC
  5
BF
100
AcDbEntity
  8
Cut
 62
256
370
-1
  6
ByLayer
100
AcDbCircle
 10
166.0982250721740172
 20
-32.700527550448669
 30
0.0
 40
1.0
100
AcDbArc
 50
270.0
 51
0.0
  0
LINE
  5
C0
100
AcDbEntity
100
AcDbLine
  8
Cut
 62
256
370
-1
  6
ByLayer
 10
167.0982250721740172
 20
-32.700527550448669
 30
0.0
 11
167.0982250721740172
 21
-0.700527550448669
 31
0.0
  0
ARC
  5
C1
100
AcDbEntity
  8
Cut
 62
256
370
-1
  6
ByLayer
100
AcDbCircle
 10
166.0982250721740172
 20
-0.700527550448669
 30
0.0
 40
1.0
100
AcDbArc
 50
0.0
 51
90.0
  0
ARC
  5
C2
100
AcDbEntity
  8
Cut
 62
256
370
-1
  6
ByLayer
100
AcDbCircle
 10
126.0982250721740172
 20
-0.700527550448669
 30
0.0
 40
1.0
100
AcDbArc
 50
90.0
 51
180.0
  0
LWPOLYLINE
  5
C3
  8
Cut
 62
256
370
-1
  6
ByLayer
100
AcDbEntity
100
AcDbPolyline
 90
4
 70
1
 10
1.098225072174045
 20
-35.700527550448669
 10
4.0982250721740447
 20
-35.700527550448669
 10
4.0982250721740447
 20
-41.700527550448669
 10
1.098225072174045
 20
-41.700527550448669
  0
LWPOLYLINE
  5
C4
  8
Cut
 62
256
370
-1
  6
ByLayer
100
AcDbEntity
100
AcDbPolyline
 90
4
 70
1
 10
1.098225072174045
 20
-47.700527550448669
 10
4.0982250721740447
 20
-47.700527550448669
 10
4.0982250721740447
 20
-53.700527550448669
 10
1.098225072174045
 20
-53.700527550448669
  0
LWPOLYLINE
  5
C5
  8
Cut
 62
256
370
-1
  6
ByLayer
100
AcDbEntity
100
AcDbPolyline
 90
4
 70
1
 10
1.098225072174045
 20
-59.700527550448669
 10
4.0982250721740447
 20
-59.700527550448669
 10
4.0982250721740447
 20
-65.700527550448669
 10
1.098225072174045
 20
-65.700527550448669
  0
LWPOLYLINE
  5
C6
  8
Cut
 62
256
370
-1
  6
ByLayer
100
AcDbEntity
100
AcDbPolyline
 90
4
 70
1
 10
39.0982250721740527
 20
-35.700527550448669
 10
36.0982250721740527
 20
-35.700527550448669
 10
36.0982250721740527
 20
-41.700527550448669
 10
39.0982250721740527
 20
-41.700527550448669
  0
LWPOLYLINE
  5
C7
  8
Cut
 62
256
370
-1
  6
ByLayer
100
AcDbEntity
100
AcDbPolyline
 90
4
 70
1
 10
39.0982250721740527
 20
-47.700527550448669
 10
36.0982250721740527
 20
-47.700527550448669
 10
36.0982250721740527
 20
-53.700527550448669
 10
39.0982250721740527
 20
-53.700527550448669
  0
LWPOLYLINE
  5
C8
  8
Cut
 62
256
370
-1
  6
ByLayer
100
AcDbEntity
100
AcDbPolyline
 90
4
 70
1
 10
39.0982250721740527
 20
-59.700527550448669
 10
36.0982250721740527
 20
-59.700527550448669
 10
36.0982250721740527
 20
-65.700527550448669
 10
39.0982250721740527
 20
-65.700527550448669
  0
CIRCLE
  5
C9
100
AcDbEntity
100
AcDbCircle
  8
Cut
 62
256
370
-1
  6
ByLayer
 10
20.0982250721740456
 20
-53.700527550448669
 30
0.0
 40
1.0
  0
CIRCLE
  5
CA
100
AcDbEntity
100
AcDbCircle
  8
Cut
 62
256
370
-1
  6
ByLayer
 10
20.0982250721740421
 20
-47.700527550448669
 30
0.0
 40
1.0
  0
LINE
  5
CB
100
AcDbEntity
100
AcDbLine
  8
Cut
 62
256
370
-1
  6
ByLayer
 10
0.0982250721740456
 20
-67.700527550448669
 30
0.0
 11
40.0982250721740385
 21
-67.700527550448669
 31
0.0
  0
ARC
  5
CC
100
AcDbEntity
  8
Cut
 62
256
370
-1
  6
ByLayer
100
AcDbCircle
 10
0.0982250721740455
 20
-66.700527550448669
 30
0.0
 40
1.0
100
AcDbArc
 50
180.0
 51
270.0
  0
ARC
  5
CD
100
AcDbEntity
  8
Cut
 62
256
370
-1
  6
ByLayer
100
AcDbCircle
 10
40.0982250721740385
 20
-66.700527550448669
 30
0.0
 40
1.0
100
AcDbArc
 50
270.0
 51
0.0
  0
LINE
  5
CE
100
AcDbEntity
100
AcDbLine
  8
Cut
 62
256
370
-1
  6
ByLayer
 10
41.0982250721740385
 20
-66.700527550448669
 30
0.0
 11
41.0982250721740385
 21
-34.700527550448669
 31
0.0
  0
ARC
  5
CF
100
AcDbEntity
  8
Cut
 62
256
370
-1
  6
ByLayer
100
AcDbCircle
 10
40.0982250721740385
 20
-34.700527550448669
 30
0.0
 40
1.0
100
AcDbArc
 50
0.0
 51
90.0
  0
ARC
  5
D0
100
AcDbEntity
  8
Cut
 62
256
370
-1
  6
ByLayer
100
AcDbCircle
 10
0.0982250721740457
 20
-34.700527550448669
 30
0.0
 40
1.0
100
AcDbArc
 50
90.0
 51
180.0
  0
LINE
  5
D1
100
AcDbEntity
100
AcDbLine
  8
Cut
 62
256
370
-1
  6
ByLayer
 10
-0.9017749278259543
 20
-34.700527550448669
 30
0.0
 11
-0.9017749278259543
 21
-66.700527550448669
 31
0.0
  0
LWPOLYLINE
  5
D2
  8
Cut
 62
256
370
-1
  6
ByLayer
100
AcDbEntity
100
AcDbPolyline
 90
4
 70
1
 10
43.0982250721740385
 20
-35.700527550448669
 10
46.0982250721740385
 20
-35.700527550448669
 10
46.0982250721740385
 20
-41.700527550448669
 10
43.0982250721740385
 20
-41.700527550448669
  0
LWPOLYLINE
  5
D3
  8
Cut
 62
256
370
-1
  6
ByLayer
100
AcDbEntity
100
AcDbPolyline
 90
4
 70
1
 10
43.0982250721740385
 20
-47.700527550448669
 10
46.0982250721740385
 20
-47.700527550448669
 10
46.0982250721740385
 20
-53.700527550448669
 10
43.0982250721740385
 20
-53.700527550448669
  0
LWPOLYLINE
  5
D4
  8
Cut
 62
256
370
-1
  6
ByLayer
100
AcDbEntity
100
AcDbPolyline
 90
4
 70
1
 10
43.0982250721740385
 20
-59.700527550448669
 10
46.0982250721740385
 20
-59.700527550448669
 10
46.0982250721740385
 20
-65.700527550448669
 10
43.0982250721740385
 20
-65.700527550448669
  0
LWPOLYLINE
  5
D5
  8
Cut
 62
256
370
-1
  6
ByLayer
100
AcDbEntity
100
AcDbPolyline
 90
4
 70
1
 10
81.0982250721740456
 20
-35.700527550448669
 10
78.0982250721740456
 20
-35.700527550448669
 10
78.0982250721740456
 20
-41.700527550448669
 10
81.0982250721740456
 20
-41.700527550448669
  0
LWPOLYLINE
  5
D6
  8
Cut
 62
256
370
-1
  6
ByLayer
100
AcDbEntity
100
AcDbPolyline
 90
4
 70
1
 10
81.0982250721740456
 20
-47.700527550448669
 10
78.0982250721740456
 20
-47.700527550448669
 10
78.0982250721740456
 20
-53.700527550448669
 10
81.0982250721740456
 20
-53.700527550448669
  0
LWPOLYLINE
  5
D7
  8
Cut
 62
256
370
-1
  6
ByLayer
100
AcDbEntity
100
AcDbPolyline
 90
4
 70
1
 10
81.0982250721740456
 20
-59.700527550448669
 10
78.0982250721740456
 20
-59.700527550448669
 10
78.0982250721740456
 20
-65.700527550448669
 10
81.0982250721740456
 20
-65.700527550448669
  0
CIRCLE
  5
D8
100
AcDbEntity
100
AcDbCircle
  8
Cut
 62
256
370
-1
  6
ByLayer
 10
62.0982250721740385
 20
-53.700527550448669
 30
0.0
 40
1.0
  0
CIRCLE
  5
D9
100
AcDbEntity
100
AcDbCircle
  8
Cut
 62
256
370
-1
  6
ByLayer
 10
62.0982250721740314
 20
-47.700527550448669
 30
0.0
 40
1.0
  0
LINE
  5
DA
100
AcDbEntity
100
AcDbLine
  8
Cut
 62
256
370
-1
  6
ByLayer
 10
42.0982250721740385
 20
-67.700527550448669
 30
0.0
 11
82.0982250721740314
 21
-67.700527550448669
 31
0.0
  0
ARC
  5
DB
100
AcDbEntity
  8
Cut
 62
256
370
-1
  6
ByLayer
100
AcDbCircle
 10
42.0982250721740385
 20
-66.700527550448669
 30
0.0
 40
1.0
100
AcDbArc
 50
180.0
 51
270.0
  0
ARC
  5
DC
100
AcDbEntity
  8
Cut
 62
256
370
-1
  6
ByLayer
100
AcDbCircle
 10
82.0982250721740314
 20
-66.700527550448669
 30
0.0
 40
1.0
100
AcDbArc
 50
270.0
 51
0.0
  0
LINE
  5
DD
100
AcDbEntity
100
AcDbLine
  8
Cut
 62
256
370
-1
  6
ByLayer
 10
83.0982250721740314
 20
-66.700527550448669
 30
0.0
 11
83.0982250721740314
 21
-34.700527550448669
 31
0.0
  0
ARC
  5
DE
100
AcDbEntity
  8
Cut
 62
256
370
-1
  6
ByLayer
100
AcDbCircle
 10
82.0982250721740314
 20
-34.700527550448669
 30
0.0
 40
1.0
100
AcDbArc
 50
0.0
 51
90.0
  0
ARC
  5
DF
100
AcDbEntity
  8
Cut
 62
256
370
-1
  6
ByLayer
100
AcDbCircle
 10
42.0982250721740385
 20
-34.700527550448669
 30
0.0
 40
1.0
100
AcDbArc
 50
90.0
 51
180.0
  0
LWPOLYLINE
  5
E0
  8
Cut
 62
256
370
-1
  6
ByLayer
100
AcDbEntity
100
AcDbPolyline
 90
4
 70
1
 10
85.0982250721740314
 20
-35.700527550448669
 10
88.0982250721740314
 20
-35.700527550448669
 10
88.0982250721740314
 20
-41.700527550448669
 10
85.0982250721740314
 20
-41.700527550448669
  0
LWPOLYLINE
  5
E1
  8
Cut
 62
256
370
-1
  6
ByLayer
100
AcDbEntity
100
AcDbPolyline
 90
4
 70
1
 10
85.0982250721740314
 20
-47.700527550448669
 10
88.0982250721740314
 20
-47.700527550448669
 10
88.0982250721740314
 20
-53.700527550448669
 10
85.0982250721740314
 20
-53.700527550448669
  0
LWPOLYLINE
  5
E2
  8
Cut
 62
256
370
-1
  6
ByLayer
100
AcDbEntity
100
AcDbPolyline
 90
4
 70
1
 10
85.0982250721740314
 20
-59.700527550448669
 10
88.0982250721740314
 20
-59.700527550448669
 10
88.0982250721740314
 20
-65.700527550448669
 10
85.0982250721740314
 20
-65.700527550448669
  0
LWPOLYLINE
  5
E3
  8
Cut
 62
256
370
-1
  6
ByLayer
100
AcDbEntity
100
AcDbPolyline
 90
4
 70
1
 10
123.0982250721740456
 20
-35.700527550448669
 10
120.0982250721740456
 20
-35.700527550448669
 10
120.0982250721740456
 20
-41.700527550448669
 10
123.0982250721740456
 20
-41.700527550448669
  0
LWPOLYLINE
  5
E4
  8
Cut
 62
256
370
-1
  6
ByLayer
100
AcDbEntity
100
AcDbPolyline
 90
4
 70
1
 10
123.0982250721740456
 20
-47.700527550448669
 10
120.0982250721740456
 20
-47.700527550448669
 10
120.0982250721740456
 20
-53.700527550448669
 10
123.0982250721740456
 20
-53.700527550448669
  0
LWPOLYLINE
  5
E5
  8
Cut
 62
256
370
-1
  6
ByLayer
100
AcDbEntity
100
AcDbPolyline
 90
4
 70
1
 10
123.0982250721740456
 20
-59.700527550448669
 10
120.0982250721740456
 20
-59.700527550448669
 10
120.0982250721740456
 20
-65.700527550448669
 10
123.0982250721740456
 20
-65.700527550448669
  0
CIRCLE
  5
E6
100
AcDbEntity
100
AcDbCircle
  8
Cut
 62
256
370
-1
  6
ByLayer
 10
104.0982250721740314
 20
-53.700527550448669
 30
0.0
 40
1.0
  0
CIRCLE
  5
E7
100
AcDbEntity
100
AcDbCircle
  8
Cut
 62
256
370
-1
  6
ByLayer
 10
104.0982250721740314
 20
-47.700527550448669
 30
0.0
 40
1.0
  0
LINE
  5
E8
100
AcDbEntity
100
AcDbLine
  8
Cut
 62
256
370
-1
  6
ByLayer
 10
84.0982250721740314
 20
-67.700527550448669
 30
0.0
 11
124.0982250721740172
 21
-67.700527550448669
 31
0.0
  0
ARC
  5
E9
100
AcDbEntity
  8
Cut
 62
256
370
-1
  6
ByLayer
100
AcDbCircle
 10
84.0982250721740314
 20
-66.700527550448669
 30
0.0
 40
1.0
100
AcDbArc
 50
180.0
 51
270.0
  0
ARC
  5
EA
100
AcDbEntity
  8
Cut
 62
256
370
-1
  6
ByLayer
100
AcDbCircle
 10
124.0982250721740172
 20
-66.700527550448669
 30
0.0
 40
1.0
100
AcDbArc
 50
270.0
 51
0.0
  0
LINE
  5
EB
100
AcDbEntity
100
AcDbLine
  8
Cut
 62
256
370
-1
  6
ByLayer
 10
125.0982250721740172
 20
-66.700527550448669
 30
0.0
 11
125.0982250721740172
 21
-34.700527550448669
 31
0.0
  0
ARC
  5
EC
100
AcDbEntity
  8
Cut
 62
256
370
-1
  6
ByLayer
100
AcDbCircle
 10
124.0982250721740172
 20
-34.700527550448669
 30
0.0
 40
1.0
100
AcDbArc
 50
0.0
 51
90.0
  0
ARC
  5
ED
100
AcDbEntity
  8
Cut
 62
256
370
-1
  6
ByLayer
100
AcDbCircle
 10
84.0982250721740314
 20
-34.700527550448669
 30
0.0
 40
1.0
100
AcDbArc
 50
90.0
 51
180.0
  0
LWPOLYLINE
  5
EE
  8
Cut
 62
256
370
-1
  6
ByLayer
100
AcDbEntity
100
AcDbPolyline
 90
4
 70
1
 10
127.0982250721740172
 20
-35.700527550448669
 10
130.0982250721740172
 20
-35.700527550448669
 10
130.0982250721740172
 20
-41.700527550448669
 10
127.0982250721740172
 20
-41.700527550448669
  0
LWPOLYLINE
  5
EF
  8
Cut
 62
256
370
-1
  6
ByLayer
100
AcDbEntity
100
AcDbPolyline
 90
4
 70
1
 10
127.0982250721740172
 20
-47.700527550448669
 10
130.0982250721740172
 20
-47.700527550448669
 10
130.0982250721740172
 20
-53.700527550448669
 10
127.0982250721740172
 20
-53.700527550448669
  0
LWPOLYLINE
  5
F0
  8
Cut
 62
256
370
-1
  6
ByLayer
100
AcDbEntity
100
AcDbPolyline
 90
4
 70
1
 10
127.0982250721740172
 20
-59.700527550448669
 10
130.0982250721740172
 20
-59.700527550448669
 10
130.0982250721740172
 20
-65.700527550448669
 10
127.0982250721740172
 20
-65.700527550448669
  0
LWPOLYLINE
  5
F1
  8
Cut
 62
256
370
-1
  6
ByLayer
100
AcDbEntity
100
AcDbPolyline
 90
4
 70
1
 10
165.0982250721740172
 20
-35.700527550448669
 10
162.0982250721740172
 20
-35.700527550448669
 10
162.0982250721740172
 20
-41.700527550448669
 10
165.0982250721740172
 20
-41.700527550448669
  0
LWPOLYLINE
  5
F2
  8
Cut
 62
256
370
-1
  6
ByLayer
100
AcDbEntity
100
AcDbPolyline
 90
4
 70
1
 10
165.0982250721740172
 20
-47.700527550448669
 10
162.0982250721740172
 20
-47.700527550448669
 10
162.0982250721740172
 20
-53.700527550448669
 10
165.0982250721740172
 20
-53.700527550448669
  0
LWPOLYLINE
  5
F3
  8
Cut
 62
256
370
-1
  6
ByLayer
100
AcDbEntity
100
AcDbPolyline
 90
4
 70
1
 10
165.0982250721740172
 20
-59.700527550448669
 10
162.0982250721740172
 20
-59.700527550448669
 10
162.0982250721740172
 20
-65.700527550448669
 10
165.0982250721740172
 20
-65.700527550448669
  0
CIRCLE
  5
F4
100
AcDbEntity
100
AcDbCircle
  8
Cut
 62
256
370
-1
  6
ByLayer
 10
146.0982250721740172
 20
-53.700527550448669
 30
0.0
 40
1.0
  0
CIRCLE
  5
F5
100
AcDbEntity
100
AcDbCircle
  8
Cut
 62
256
370
-1
  6
ByLayer
 10
146.0982250721740172
 20
-47.700527550448669
 30
0.0
 40
1.0
  0
LINE
  5
F6
100
AcDbEntity
100
AcDbLine
  8
Cut
 62
256
370
-1
  6
ByLayer
 10
126.0982250721740172
 20
-67.700527550448669
 30
0.0
 11
166.0982250721740172
 21
-67.700527550448669
 31
0.0
  0
ARC
  5
F7
100
AcDbEntity
  8
Cut
 62
256
370
-1
  6
ByLayer
100
AcDbCircle
 10
126.0982250721740172
 20
-66.700527550448669
 30
0.0
 40
1.0
100
AcDbArc
 50
180.0
 51
270.0
  0
ARC
  5
F8
100
AcDbEntity
  8
Cut
 62
256
370
-1
  6
ByLayer
100
AcDbCircle
 10
166.0982250721740172
 20
-66.700527550448669
 30
0.0
 40
1.0
100
AcDbArc
 50
270.0
 51
0.0
  0
LINE
  5
F9
100
AcDbEntity
100
AcDbLine
  8
Cut
 62
256
370
-1
  6
ByLayer
 10
167.0982250721740172
 20
-66.700527550448669
 30
0.0
 11
167.0982250721740172
 21
-34.700527550448669
 31
0.0
  0
ARC
  5
FA
100
AcDbEntity
  8
Cut
 62
256
370
-1
  6
ByLayer
100
AcDbCircle
 10
166.0982250721740172
 20
-34.700527550448669
 30
0.0
 40
1.0
100
AcDbArc
 50
0.0
 51
90.0
  0
ARC
  5
FB
100
AcDbEntity
  8
Cut
 62
256
370
-1
  6
ByLayer
100
AcDbCircle
 10
126.0982250721740172
 20
-34.700527550448669
 30
0.0
 40
1.0
100
AcDbArc
 50
90.0
 51
180.0
  0
ENDSEC
  0
SECTION
  2
OBJECTS
  0
DICTIONARY
  5
C
100
AcDbDictionary
280
0
281
1
  3
ACAD_GROUP
350
D
  3
ACAD_LAYOUT
350
1A
  3
ACAD_MLINESTYLE
350
17
  3
ACAD_PLOTSETTINGS
350
19
  3
ACAD_PLOTSTYLENAME
350
E
  3
AcDbVariableDictionary
350
FC
  0
DICTIONARY
  5
D
100
AcDbDictionary
280
0
281
1
  0
ACDBDICTIONARYWDFLT
  5
E
100
AcDbDictionary
281
1
  3
Normal
350
F
100
AcDbDictionaryWithDefault
340
F
  0
ACDBPLACEHOLDER
  5
F
  0
DICTIONARY
  5
17
100
AcDbDictionary
280
0
281
1
  3
Standard
350
18
  0
MLINESTYLE
  5
18
100
AcDbMlineStyle
  2
STANDARD
 70
0
  3

 62
256
 51
90.0
 52
90.0
 71
2
 49
0.5
 62
256
  6
BYLAYER
 49
-0.5
 62
256
  6
BYLAYER
  0
DICTIONARY
  5
19
100
AcDbDictionary
280
0
281
1
  0
DICTIONARY
  5
1A
100
AcDbDictionary
281
1
  3
Layout1
350
1E
  3
Layout2
350
26
  3
Model
350
22
  0
LAYOUT
  5
1E
100
AcDbPlotSettings
  1

  2
C:\Program Files\AutoCAD 2002\plotters\DWF ePlot (optimized for plotting).pc3
  4

  6

 40
0.0
 41
0.0
 42
0.0
 43
0.0
 44
0.0
 45
0.0
 46
0.0
 47
0.0
 48
0.0
 49
0.0
140
0.0
141
0.0
142
1.0
143
1.0
 70
688
 72
0
 73
0
 74
5
  7

 75
16
147
1.0
148
0.0
149
0.0
100
AcDbLayout
  1
Layout1
 70
1
 71
1
 10
0.0
 20
0.0
 11
420.0
 21
297.0
 12
0.0
 22
0.0
 32
0.0
 14
100000000000000000000.0
 24
100000000000000000000.0
 34
100000000000000000000.0
 15
-100000000000000000000.0
 25
-100000000000000000000.0
 35
-100000000000000000000.0
146
0.0
 13
0.0
 23
0.0
 33
0.0
 16
1.0
 26
0.0
 36
0.0
 17
0.0
 27
1.0
 37
0.0
 76
0
330
1B
  0
LAYOUT
  5
22
100
AcDbPlotSettings
  1

  2
C:\Program Files\AutoCAD 2002\plotters\DWF ePlot (optimized for plotting).pc3
  4

  6

 40
0.0
 41
0.0
 42
0.0
 43
0.0
 44
0.0
 45
0.0
 46
0.0
 47
0.0
 48
0.0
 49
0.0
140
0.0
141
0.0
142
1.0
143
1.0
 70
1712
 72
0
 73
0
 74
0
  7

 75
0
147
1.0
148
0.0
149
0.0
100
AcDbLayout
  1
Model
 70
1
 71
0
 10
0.0
 20
0.0
 11
12.0
 21
9.0
 12
0.0
 22
0.0
 32
0.0
 14
0.0
 24
0.0
 34
0.0
 15
0.0
 25
0.0
 35
0.0
146
0.0
 13
0.0
 23
0.0
 33
0.0
 16
1.0
 26
0.0
 36
0.0
 17
0.0
 27
1.0
 37
0.0
 76
0
330
1F
  0
LAYOUT
  5
26
100
AcDbPlotSettings
  1

  2
C:\Program Files\AutoCAD 2002\plotters\DWF ePlot (optimized for plotting).pc3
  4

  6

 40
0.0
 41
0.0
 42
0.0
 43
0.0
 44
0.0
 45
0.0
 46
0.0
 47
0.0
 48
0.0
 49
0.0
140
0.0
141
0.0
142
1.0
143
1.0
 70
688
 72
0
 73
0
 74
5
  7

 75
16
147
1.0
148
0.0
149
0.0
100
AcDbLayout
  1
Layout2
 70
1
 71
2
 10
0.0
 20
0.0
 11
12.0
 21
9.0
 12
0.0
 22
0.0
 32
0.0
 14
0.0
 24
0.0
 34
0.0
 15
0.0
 25
0.0
 35
0.0
146
0.0
 13
0.0
 23
0.0
 33
0.0
 16
1.0
 26
0.0
 36
0.0
 17
0.0
 27
1.0
 37
0.0
 76
0
330
23
  0
DICTIONARY
  5
FC
100
AcDbDictionary
281
1
  3
DIMASSOC
350
FE
  3
HIDETEXT
350
FD
  0
DICTIONARYVAR
  5
FD
100
DictionaryVariables
280
0
  1
2
  0
DICTIONARYVAR
  5
FE
100
DictionaryVariables
280
0
  1
1
  0
ENDSEC
  0
EOF
